Song name
# A B C D E F G H I J K L M N O P Q R S T U V W X Y Z

Bathory - Return Of The Darkness And Evil tab

BATHORY - THE RETURN OF DARKNESS AND EVIL

As played on Scandinavian Metal Attack

INTRO
e|---------------------------------------------------------------------------|
B|---------------------------------------------------------------------------|
G|---------------------------------------------------------------------------|
D|-------------------------------------------------------3-------------------| x8
A|-------------------------------------------------5--3--1-------------------| 
E|-0-0-0-0-0-0-0-0-0-0-0-0-0-0-0-0-0-0-0-0-0-0-0-0-3--1----------------------|

VERSE
e|---------------------------------------------------------------------------|
B|---------------------------------------------------------------------------|
G|---------------------------------------------------------------------------|
D|-------------------------------------------------------3-------------------| x8
A|-------------------------------------------------5--3--1-------------------| 
E|-0-0-0-0-0-0-0-0-0-0-0-0-0-0-0-0-0-0-0-0-0-0-0-0-3--1----------------------|

e|---------------------------------------------------------------------------|
B|---------------------------------------------------------------------------|
G|---------------------------------------------------------------------------|
D|------------------------------------------------------------3--------------|
A|------------------------------------------------------5--3--1--------------|
E|-5-5-5-5-5-5-5-5-5-5-5-5-5-5-5-5-[x3]-5-5-5-5-5-5-5-5-3--1-----------------|

e|---------------------------------------------------------------------------|
B|---------------------------------------------------------------------------|
G|---------------------------------------------------------------------------|
D|-------------------------------------------------------3-------------------| x2
A|-------------------------------------------------5--3--1-------------------| 
E|-0-0-0-0-0-0-0-0-0-0-0-0-0-0-0-0-0-0-0-0-0-0-0-0-3--1----------------------|

e|---------------------------------------------------------------------------|
B|---------------------------------------------------------------------------|
G|---------------------------------------------------------------------------|
D|---------------------------------------------------------------------------|
A|---------------------------------------------------------------------------|
E|-5-5-5-5-5-5-5-5-5-5-5-5-5-5-5-5-[x4]--------------------------------------|

CHORUS
e|---------------------------------------------------------------------------|
B|---------------------------------------------------------------------------|
G|---------------------------------------------------------------------------|
D|---------------------------------------------------------------------------|
A|-9-------7-------5-------4-------------------------------------------------|
E|-7-------5-------3-------2-------------------------------------------------|

e|---------------------------------------------------------------------------|
B|---------------------------------------------------------------------------|
G|---------------------------------------------------------------------------|
D|-9-------------------------------9-----------------------------------------|
A|-7-------9-------10------7-------7-------9-------10-----12-----------------|
E|---------7-------8-------5---------------7-------8------10-----------------|

e|---------------------------------------------------------------------------|
B|---------------------------------------------------------------------------|
G|---------------------------------------------------------------------------|
D|-9-------------------------------9---------------------------------3-------|
A|-7-------9-------10------7-------7-------9-------10-----12---5--3--1-------|
E|---------7-------8-------5---------------7-------8------10---3--1----------|

SOLO RIFF
e|---------------------------------------------------------------------------|
B|---------------------------------------------------------------------------|
G|---------------------------------------------------------------------------|
D|-7-------10------9---------------7-------10------12-----15------3--2-------|
A|-5-------8-------7-------10------5-------8-------10-----13------1--0--3----|
E|-------------------------8--------------------------------------------1----|

There are all the riffs. Listen to the record to figure out how to put them together.
Tap to rate this tab
# A B C D E F G H I J K L M N O P Q R S T U V W X Y Z