Song name
# A B C D E F G H I J K L M N O P Q R S T U V W X Y Z

Bathory - Blooded Shore tab

band: Bathory
song: Blooded Shore
album: Nordland II
year: 2003
genre: viking metal

disclaimer: i do not own any of Bathory's material. I am only posting this to further 
the aspirations of fellow Bathory fans and viking metal enthusiasts who love Quorthon's 
viking-themed material and have been heretofore unable to procure accurate tabs. Enjoy!

if you have any questions, suggestions or corrections, leave them in the comments below.

(main riff)
D|-----------------------------------------------------------------|
A|-----------------------------------------------------------------|
F|-----------------------------------------------------------------|
C|---5-7-8--7-5-3-5-7--0------------5-7-8--7-5-3-5-7--5------------|4x
G|---5-7-8--7-5-3-5-7--0--0-0-0-0---5-7-8--7-5-3-5-7--5--5-5-5-5---|
C|---5-7-8--7-5-3-5-7--0--0-0-0-0---5-7-8--7-5-3-5-7--5--5-5-5-5---|
                          . . . .                        . . . .

D|---------------------|
A|---------------------|
F|-----------------5---|
C|---3-2-3--2-0-2--5---|
G|---3-2-3--2-0-2--3---|
C|---3-2-3--2-0-2------|

(verse 1)
D|------------------------------------------------------------------|
A|------------------------------------------------------------------|
F|-------------------3-3-3-3-5--------------------------------------|
C|-------0-2-3-2-0---3-3-3-3-5--------0---------0-2-3--7-5----------|6x
G|---0-0-0-2-3-2-0-0-1-1-1-1-3--------0--0-0-0--0-2-3--7-5--5-5-5---|
C|---0-0-0-2-3-2-0-0-----------0-0-0--0--0-0-0--0-2-3--7-5--5-5-5---|
     . .           .           . . .                        . . .

(verse 2)
D|--------------------------------------|
A|--------------------------------------|
F|--------------------------------------|
C|---3-3-3-3-3-3-3-3-1-1-1-1-3----------|3x
G|---3-3-3-3-3-3-3-3-1-1-1-1-3----------|
C|---3-3-3-3-3-3-3-3-1-1-1-1-3--3-3-3---|

(coda of verse 2)
D|-------------------------------------------------------------------------------------|
A|-------------------------------------------------------------------------------------|
F|-------------------------------------------------------------------------------------|
C|---3-3-3-3-3-3-3-3-1-1-1-1-1-1-1-1-1-1-1-1-1-1-1-1-0-0-0-0-0-0-0-0-0-0-0-0-0-0-0-0---|
G|---3-3-3-3-3-3-3-3-1-1-1-1-1-1-1-1-1-1-1-1-1-1-1-1-0-0-0-0-0-0-0-0-0-0-0-0-0-0-0-0---|
C|---3-3-3-3-3-3-3-3-1-1-1-1-1-1-1-1-1-1-1-1-1-1-1-1-0-0-0-0-0-0-0-0-0-0-0-0-0-0-0-0---|

(pre-chorus)
D|--------------------------------------------------------------------|
A|--------------------------------------------------------------------|
F|--------------------------------------------------------------------|
C|---5-5-5-5-5-5-5-5-2-2-2-2-3---------5---------5-0-2-0-5-3----------|3x
G|---5-5-5-5-5-5-5-5-2-2-2-2-3---------5--5-5-5--5-0-2-0-5-3--3-3-3---|
C|---5-5-5-5-5-5-5-5-2-2-2-2-3--3-3-3--5--5-5-5--5-0-2-0-5-3--3-3-3---|
                                . . .                         . . .

D|-------------------------------------------------------------|
A|-------------------------------------------------------------|
F|-------------------------------------------------------------|
C|---5-5-5-5-5-5-5-5-2-2-2-2-3---------5---------5-0-2-0-5-3---|
G|---5-5-5-5-5-5-5-5-2-2-2-2-3---------5--5-5-5--5-0-2-0-5-3---|
C|---5-5-5-5-5-5-5-5-2-2-2-2-3--3-3-3--5--5-5-5--5-0-2-0-5-3---|
                                . . .

(main riff)
D|-----------------------------------------------------------------|
A|-----------------------------------------------------------------|
F|-----------------------------------------------------------------|
C|---5-7-8--7-5-3-5-7--0------------5-7-8--7-5-3-5-7--5------------|4x
G|---5-7-8--7-5-3-5-7--0--0-0-0-0---5-7-8--7-5-3-5-7--5--5-5-5-5---|
C|---5-7-8--7-5-3-5-7--0--0-0-0-0---5-7-8--7-5-3-5-7--5--5-5-5-5---|
                          . . . .                        . . . .

D|---------------------|
A|---------------------|
F|-----------------5---|
C|---3-2-3--2-0-2--5---|
G|---3-2-3--2-0-2--3---|
C|---3-2-3--2-0-2------|

(verse 1)
D|------------------------------------------------------------------|
A|------------------------------------------------------------------|
F|-------------------3-3-3-3-5--------------------------------------|
C|-------0-2-3-2-0---3-3-3-3-5--------0---------0-2-3--7-5----------|6x
G|---0-0-0-2-3-2-0-0-1-1-1-1-3--------0--0-0-0--0-2-3--7-5--5-5-5---|
C|---0-0-0-2-3-2-0-0-----------0-0-0--0--0-0-0--0-2-3--7-5--5-5-5---|
     . .           .           . . .                        . . .

(verse 2)
D|--------------------------------------|
A|--------------------------------------|
F|--------------------------------------|
C|---3-3-3-3-3-3-3-3-1-1-1-1-3----------|3x
G|---3-3-3-3-3-3-3-3-1-1-1-1-3----------|
C|---3-3-3-3-3-3-3-3-1-1-1-1-3--3-3-3---|

(coda of verse 2)
D|-------------------------------------------------------------------------------------|
A|-------------------------------------------------------------------------------------|
F|-------------------------------------------------------------------------------------|
C|---3-3-3-3-3-3-3-3-1-1-1-1-1-1-1-1-1-1-1-1-1-1-1-1-0-0-0-0-0-0-0-0-0-0-0-0-0-0-0-0---|
G|---3-3-3-3-3-3-3-3-1-1-1-1-1-1-1-1-1-1-1-1-1-1-1-1-0-0-0-0-0-0-0-0-0-0-0-0-0-0-0-0---|
C|---3-3-3-3-3-3-3-3-1-1-1-1-1-1-1-1-1-1-1-1-1-1-1-1-0-0-0-0-0-0-0-0-0-0-0-0-0-0-0-0---|

(pre-chorus)
D|--------------------------------------------------------------------|
A|--------------------------------------------------------------------|
F|--------------------------------------------------------------------|
C|---5-5-5-5-5-5-5-5-2-2-2-2-3---------5---------5-0-2-0-5-3----------|3x
G|---5-5-5-5-5-5-5-5-2-2-2-2-3---------5--5-5-5--5-0-2-0-5-3--3-3-3---|
C|---5-5-5-5-5-5-5-5-2-2-2-2-3--3-3-3--5--5-5-5--5-0-2-0-5-3--3-3-3---|
                                . . .                         . . .

D|-------------------------------------------------------------|
A|-------------------------------------------------------------|
F|-------------------------------------------------------------|
C|---5-5-5-5-5-5-5-5-2-2-2-2-3---------5---------5-0-2-0-5-3---|
G|---5-5-5-5-5-5-5-5-2-2-2-2-3---------5--5-5-5--5-0-2-0-5-3---|
C|---5-5-5-5-5-5-5-5-2-2-2-2-3--3-3-3--5--5-5-5--5-0-2-0-5-3---|
                                . . .

(main riff)
D|-----------------------------------------------------------------|
A|-----------------------------------------------------------------|
F|-----------------------------------------------------------------|
C|---5-7-8--7-5-3-5-7--0------------5-7-8--7-5-3-5-7--5------------|4x
G|---5-7-8--7-5-3-5-7--0--0-0-0-0---5-7-8--7-5-3-5-7--5--5-5-5-5---|
C|---5-7-8--7-5-3-5-7--0--0-0-0-0---5-7-8--7-5-3-5-7--5--5-5-5-5---|
                          . . . .                        . . . .

D|---------------------|
A|---------------------|
F|-----------------5---|
C|---3-2-3--2-0-2--5---|
G|---3-2-3--2-0-2--3---|
C|---3-2-3--2-0-2------|

D|------------------------------------------------------------------|
A|------------------------------------------------------------------|
F|-------------------3-3-3-3-5--------------------------------------|
C|-------0-2-3-2-0---3-3-3-3-5--------0---------0-2-3--7-5----------|2x
G|---0-0-0-2-3-2-0-0-1-1-1-1-3--------0--0-0-0--0-2-3--7-5--5-5-5---|
C|---0-0-0-2-3-2-0-0-----------0-0-0--0--0-0-0--0-2-3--7-5--5-5-5---|
     . .           .           . . .                        . . .

(bridge)
D|----------------------------------------------------------------|
A|----------------------------------------------------------------|
F|----------------------------------------------------------------|
C|---1-1-1-1-1-1-1-1-3-3-3-3-3-3-3-3--3h5-5-3-5--5-3-5--5-3-5-3---|3x
G|---1-1-1-1-1-1-1-1-3-3-3-3-3-3-3-3--3h5-5-3-5--5-3-5--5-3-5-3---|
C|---1-1-1-1-1-1-1-1-3-3-3-3-3-3-3-3--3h5-5-3-5--5-3-5--5-3-5-3---|

(end)
D|------------------------------------------------------|
A|------------------------------------------------------|
F|------------------------------------------------------|
C|---1-1-1-1-1-1-1-1-3-3-3-3-3-3--5-7-8--7-5-3-5-7--0---|
G|---1-1-1-1-1-1-1-1-3-3-3-3-3-3--5-7-8--7-5-3-5-7--0---|
C|---1-1-1-1-1-1-1-1-3-3-3-3-3-3--5-7-8--7-5-3-5-7--0---|
Tap to rate this tab
# A B C D E F G H I J K L M N O P Q R S T U V W X Y Z