Song name
# A B C D E F G H I J K L M N O P Q R S T U V W X Y Z

Bathory - Foreverdark Woods tab

band: Bathory
song: Foreverdark Woods
album: Nordland I
year: 2003
genre: viking metal

back again with another viking metal song from Bathory's penultimate album. the only
parts i didn't tab are the mandolin intro, because i don't own a mandolin, and the 
guitar solo.

tuning is drop C (C G C F A D)

guitar melody - first two notes are not played on the first run, but on every run afterwards

D|----|_only skip these on the first run_|---------------------------|
A|----v--------------------------------------------------------------|
F|---(9-7)------------------7----7-9-9-7------------------7----------|
C|---------10--10-10-9--9-9---10---------10--10-10-9--9-9---9-10-7---|
G|-------------------------------------------------------------------|
C|-------------------------------------------------------------------|

D|------------------------------------------------------------------------|
A|------------------------------------------------------------------------|
F|----9-7-------------------7----7-9-9-7------------------7---------------|
C|---------10--10-10-9--9-9---10---------10--10-10-9--9-9---9-10-7-7------|
G|-------------------------------------------------------------------10---|
C|------------------------------------------------------------------------|

D|-----------------------------------------------------------------|
A|-----------------------------------------------------------------|
F|-----------------------------------------------------------------|
C|----------10--10-10-9--9-9------------------10--10-10-7-9-10-7---|
G|---8--8-8------------------10--10-10-8--8-8----------------------|
C|-----------------------------------------------------------------|

D|-------------------------------------------------------------------|
A|-------------------------------------------------------------------|
F|----9-7-------------------7----7-9-9-7------------------7----------|
C|---------10--10-10-9--9-9---10---------10--10-10-9--9-9---9-10-7---|
G|-------------------------------------------------------------------|
C|-------------------------------------------------------------------|

D|-----------------------------------------------------------------------|
A|-----------------------------------------------------------------------|
F|----9-7-------------------7----7-9-9-7------------------7--------------|
C|---------10--10-10-9--9-9---10---------10--10-10-9--9-9---9-10-7-7-7---|
G|-----------------------------------------------------------------------|
C|-----------------------------------------------------------------------|

(guitar rhythm)
D|--------------------------------|
A|--------------------------------|
F|---2-2-2--2-2-2--2-2-2--2-2-2---|4x
C|---2-2-2--2-2-2--2-2-2--2-2-2---|
G|---0-0-0--0-0-0--0-0-0--0-0-0---|
C|--------------------------------|

D|-----------------------------------------------------------|
A|-----------------------------------------------------------|
F|---------------------------------------------5-5-5-4-4-4---|
C|---3-3-3--3-3-3--3-3-3--3-3-3--3-3-3--3-3-3--5-5-5-4-4-4---|
G|---3-3-3--3-3-3--3-3-3--3-3-3--3-3-3--3-3-3--3-3-3-2-2-2---|
C|---3-3-3--3-3-3--3-3-3--3-3-3--3-3-3--3-3-3----------------|

D|--------------------------------|
A|--------------------------------|
F|---2-2-2--2-2-2--2-2-2--2-2-2---|4x
C|---2-2-2--2-2-2--2-2-2--2-2-2---|
G|---0-0-0--0-0-0--0-0-0--0-0-0---|
C|--------------------------------|

(pre-verse)
D|-----------------------------------------------------------------------------------|
A|-----------------------------------------------------------------------------------|
F|---2--2-2-2--2--2-2-2--2--2-2-2--2--2-2-2--2--2-2-2--2--2-2-2------4---------------|
C|---2--2-2-2--2--2-2-2--2--2-2-2--2--2-2-2--2--2-2-2--2--2-2-2------4------5--------|
G|---0--0-0-0--0--0-0-0--0--0-0-0--0--0-0-0--0--0-0-0--0--0-0-0------2------5--------|
C|---------------------------------------------------------------0-0----0-0-5--0-0---|

D|-----------------------------------------------------------------------------------|
A|-----------------------------------------------------------------------------------|
F|---2--2-2-2--2--2-2-2--2--2-2-2--2--2-2-2--2--2-2-2--2--2-2-2------4---------------|
C|---2--2-2-2--2--2-2-2--2--2-2-2--2--2-2-2--2--2-2-2--2--2-2-2------4------5--------|
G|---0--0-0-0--0--0-0-0--0--0-0-0--0--0-0-0--0--0-0-0--0--0-0-0------2------5--------|
C|---------------------------------------------------------------0-0----0-0-5--0-0---|

D|-------------------------------------------------------------------------------|
A|-------------------------------------------------------------------------------|
F|---------------------------------------------------------------5------4--------|
C|---3--3-3-3--3--3-3-3--3--3-3-3--3--3-3-3--5--5-5-5--5--5-5-5--5------4--------|
G|---3--3-3-3--3--3-3-3--3--3-3-3--3--3-3-3--5--5-5-5--5--5-5-5--3------2--------|
C|---3--3-3-3--3--3-3-3--3--3-3-3--3--3-3-3--5--5-5-5--5--5-5-5-----0-0----0-0---|

D|-----------------------------------------------------------------------------------|
A|-----------------------------------------------------------------------------------|
F|---2--2-2-2--2--2-2-2--2--2-2-2--2--2-2-2--2--2-2-2--2--2-2-2------4---------------|
C|---2--2-2-2--2--2-2-2--2--2-2-2--2--2-2-2--2--2-2-2--2--2-2-2------4------5--------|
G|---0--0-0-0--0--0-0-0--0--0-0-0--0--0-0-0--0--0-0-0--0--0-0-0------2------5--------|
C|---------------------------------------------------------------0-0----0-0-5--0-0---|

D|-----------------------------------------------------------------------------------|
A|-----------------------------------------------------------------------------------|
F|---2--2-2-2--2--2-2-2--2--2-2-2--2--2-2-2--2--2-2-2--2--2-2-2------4---------------|
C|---2--2-2-2--2--2-2-2--2--2-2-2--2--2-2-2--2--2-2-2--2--2-2-2------4------5--------|
G|---0--0-0-0--0--0-0-0--0--0-0-0--0--0-0-0--0--0-0-0--0--0-0-0------2------5--------|
C|---------------------------------------------------------------0-0----0-0-5--0-0---|


(verse)
D|------------------------------------------------------------------------------------|
A|------------------------------------------------------------------------------------|
F|---2--2-2-2--2--2-2-2--2--2-2-2--2--2-2-2--2--2-2-2--2--2-2-2--2--2-2-2--2--2-2-2---|
C|---2--2-2-2--2--2-2-2--2--2-2-2--2--2-2-2--2--2-2-2--2--2-2-2--2--2-2-2--2--2-2-2---|
G|---0--0-0-0--0--0-0-0--0--0-0-0--0--0-0-0--0--0-0-0--0--0-0-0--0--0-0-0--0--0-0-0---|
C|------------------------------------------------------------------------------------|
                                                                                        4x
D|----------------------------------------------------------------------------|
A|----------------------------------------------------------------------------|
F|---5--5-5-5--5--5-5-5--5--5-5-5--5--5-5-5--7--7-7-7--7------5------4--------|
C|---5--5-5-5--5--5-5-5--5--5-5-5--5--5-5-5--7--7-7-7--7------5------4--------|
G|---3--3-3-3--3--3-3-3--3--3-3-3--3--3-3-3--5--5-5-5--5------3------2--------|
C|--------------------------------------------------------0-0----0-0----0-0---|

D|-------------------------------------------------------------------------------|
A|-------------------------------------------------------------------------------|
F|---------------------------------------------------------------5------4--------|
C|---3--3-3-3--3--3-3-3--3--3-3-3--3--3-3-3--5--5-5-5--5--5-5-5--5------4--------|
G|---3--3-3-3--3--3-3-3--3--3-3-3--3--3-3-3--5--5-5-5--5--5-5-5--3------2--------|
C|---3--3-3-3--3--3-3-3--3--3-3-3--3--3-3-3--5--5-5-5--5--5-5-5-----0-0----0-0---|

D|------------------------------------------------------------------------------------|
A|------------------------------------------------------------------------------------|
F|---2--2-2-2--2--2-2-2--2--2-2-2--2--2-2-2--2--2-2-2--2--2-2-2--2--2-2-2--2--2-2-2---|
C|---2--2-2-2--2--2-2-2--2--2-2-2--2--2-2-2--2--2-2-2--2--2-2-2--2--2-2-2--2--2-2-2---|
G|---0--0-0-0--0--0-0-0--0--0-0-0--0--0-0-0--0--0-0-0--0--0-0-0--0--0-0-0--0--0-0-0---|
C|------------------------------------------------------------------------------------|

D|-------------------------------------------------------------------------------|
A|-------------------------------------------------------------------------------|
F|---------------------------------------------------------------5------4--------|
C|---3--3-3-3--3--3-3-3--3--3-3-3--3--3-3-3--5--5-5-5--5--5-5-5--5------4--------|
G|---3--3-3-3--3--3-3-3--3--3-3-3--3--3-3-3--5--5-5-5--5--5-5-5--3------2--------|
C|---3--3-3-3--3--3-3-3--3--3-3-3--3--3-3-3--5--5-5-5--5--5-5-5-----0-0----0-0---|

D|------------------------------------------------------------------------------------|
A|------------------------------------------------------------------------------------|
F|---2--2-2-2--2--2-2-2--2--2-2-2--2--2-2-2--2--2-2-2--2--2-2-2--2--2-2-2--2--2-2-2---|
C|---2--2-2-2--2--2-2-2--2--2-2-2--2--2-2-2--2--2-2-2--2--2-2-2--2--2-2-2--2--2-2-2---|
G|---0--0-0-0--0--0-0-0--0--0-0-0--0--0-0-0--0--0-0-0--0--0-0-0--0--0-0-0--0--0-0-0---|
C|------------------------------------------------------------------------------------|

D|----------------------------------------------------------------------------|
A|----------------------------------------------------------------------------|
F|---2--2-2-2--2--2-2-2---------------------------------------5------4--------|
C|---2--2-2-2--2--2-2-2--3--3-3-3--3--3-3-3--5--5-5-5--5------5------4--------|2x
G|---0--0-0-0--0--0-0-0--3--3-3-3--3--3-3-3--5--5-5-5--5------3------2--------|
C|-----------------------3--3-3-3--3--3-3-3--5--5-5-5--5--0-0----0-0----0-0---|

D|--------------------------------------------------------------------------|
A|--------------------------------------------------------------------------|
F|---------------------------------------------------------------5------4---|
C|---3--3-3-3--3--3-3-3--3--3-3-3--3--3-3-3--5--5-5-5--5--5-5-5--5------4---|
G|---3--3-3-3--3--3-3-3--3--3-3-3--3--3-3-3--5--5-5-5--5--5-5-5--3------2---|
C|---3--3-3-3--3--3-3-3--3--3-3-3--3--3-3-3--5--5-5-5--5--5-5-5-----0-0-----|

(play melody over this)
D|--------------------------------|
A|--------------------------------|
F|---2-2-2--2-2-2--2-2-2--2-2-2---|4x
C|---2-2-2--2-2-2--2-2-2--2-2-2---|
G|---0-0-0--0-0-0--0-0-0--0-0-0---|
C|--------------------------------|

D|-----------------------------------------------------------|
A|-----------------------------------------------------------|
F|---------------------------------------------5-5-5-4-4-4---|
C|---3-3-3--3-3-3--3-3-3--3-3-3--3-3-3--3-3-3--5-5-5-4-4-4---|
G|---3-3-3--3-3-3--3-3-3--3-3-3--3-3-3--3-3-3--3-3-3-2-2-2---|
C|---3-3-3--3-3-3--3-3-3--3-3-3--3-3-3--3-3-3----------------|

D|--------------------------------|
A|--------------------------------|
F|---2-2-2--2-2-2--2-2-2--2-2-2---|4x
C|---2-2-2--2-2-2--2-2-2--2-2-2---|
G|---0-0-0--0-0-0--0-0-0--0-0-0---|
C|--------------------------------|

(verse)
D|------------------------------------------------------------------------------------|
A|------------------------------------------------------------------------------------|
F|---2--2-2-2--2--2-2-2--2--2-2-2--2--2-2-2--2--2-2-2--2--2-2-2--2--2-2-2--2--2-2-2---|
C|---2--2-2-2--2--2-2-2--2--2-2-2--2--2-2-2--2--2-2-2--2--2-2-2--2--2-2-2--2--2-2-2---|
G|---0--0-0-0--0--0-0-0--0--0-0-0--0--0-0-0--0--0-0-0--0--0-0-0--0--0-0-0--0--0-0-0---|
C|------------------------------------------------------------------------------------|
                                                                                        4x
D|----------------------------------------------------------------------------|
A|----------------------------------------------------------------------------|
F|---5--5-5-5--5--5-5-5--5--5-5-5--5--5-5-5--7--7-7-7--7------5------4--------|
C|---5--5-5-5--5--5-5-5--5--5-5-5--5--5-5-5--7--7-7-7--7------5------4--------|
G|---3--3-3-3--3--3-3-3--3--3-3-3--3--3-3-3--5--5-5-5--5------3------2--------|
C|--------------------------------------------------------0-0----0-0----0-0---|

D|-------------------------------------------------------------------------------|
A|-------------------------------------------------------------------------------|
F|---------------------------------------------------------------5------4--------|
C|---3--3-3-3--3--3-3-3--3--3-3-3--3--3-3-3--5--5-5-5--5--5-5-5--5------4--------|
G|---3--3-3-3--3--3-3-3--3--3-3-3--3--3-3-3--5--5-5-5--5--5-5-5--3------2--------|
C|---3--3-3-3--3--3-3-3--3--3-3-3--3--3-3-3--5--5-5-5--5--5-5-5-----0-0----0-0---|

D|------------------------------------------------------------------------------------|
A|------------------------------------------------------------------------------------|
F|---2--2-2-2--2--2-2-2--2--2-2-2--2--2-2-2--2--2-2-2--2--2-2-2--2--2-2-2--2--2-2-2---|
C|---2--2-2-2--2--2-2-2--2--2-2-2--2--2-2-2--2--2-2-2--2--2-2-2--2--2-2-2--2--2-2-2---|
G|---0--0-0-0--0--0-0-0--0--0-0-0--0--0-0-0--0--0-0-0--0--0-0-0--0--0-0-0--0--0-0-0---|
C|------------------------------------------------------------------------------------|

D|-------------------------------------------------------------------------------|
A|-------------------------------------------------------------------------------|
F|---------------------------------------------------------------5------4--------|
C|---3--3-3-3--3--3-3-3--3--3-3-3--3--3-3-3--5--5-5-5--5--5-5-5--5------4--------|
G|---3--3-3-3--3--3-3-3--3--3-3-3--3--3-3-3--5--5-5-5--5--5-5-5--3------2--------|
C|---3--3-3-3--3--3-3-3--3--3-3-3--3--3-3-3--5--5-5-5--5--5-5-5-----0-0----0-0---|

D|------------------------------------------------------------------------------------|
A|------------------------------------------------------------------------------------|
F|---2--2-2-2--2--2-2-2--2--2-2-2--2--2-2-2--2--2-2-2--2--2-2-2--2--2-2-2--2--2-2-2---|
C|---2--2-2-2--2--2-2-2--2--2-2-2--2--2-2-2--2--2-2-2--2--2-2-2--2--2-2-2--2--2-2-2---|
G|---0--0-0-0--0--0-0-0--0--0-0-0--0--0-0-0--0--0-0-0--0--0-0-0--0--0-0-0--0--0-0-0---|
C|------------------------------------------------------------------------------------|

D|----------------------------------------------------------------------------|
A|----------------------------------------------------------------------------|
F|---2--2-2-2--2--2-2-2---------------------------------------5------4--------|
C|---2--2-2-2--2--2-2-2--3--3-3-3--3--3-3-3--5--5-5-5--5------5------4--------|2x
G|---0--0-0-0--0--0-0-0--3--3-3-3--3--3-3-3--5--5-5-5--5------3------2--------|
C|-----------------------3--3-3-3--3--3-3-3--5--5-5-5--5--0-0----0-0----0-0---|

D|--------------------------------------------------------------------------|
A|--------------------------------------------------------------------------|
F|---------------------------------------------------------------5------4---|
C|---3--3-3-3--3--3-3-3--3--3-3-3--3--3-3-3--5--5-5-5--5--5-5-5--5------4---|
G|---3--3-3-3--3--3-3-3--3--3-3-3--3--3-3-3--5--5-5-5--5--5-5-5--3------2---|
C|---3--3-3-3--3--3-3-3--3--3-3-3--3--3-3-3--5--5-5-5--5--5-5-5-----0-0-----|

(play melody over this)
D|--------------------------------|
A|--------------------------------|
F|---2-2-2--2-2-2--2-2-2--2-2-2---|4x
C|---2-2-2--2-2-2--2-2-2--2-2-2---|
G|---0-0-0--0-0-0--0-0-0--0-0-0---|
C|--------------------------------|

D|-----------------------------------------------------------|
A|-----------------------------------------------------------|
F|---------------------------------------------5-5-5-4-4-4---|
C|---3-3-3--3-3-3--3-3-3--3-3-3--3-3-3--3-3-3--5-5-5-4-4-4---|
G|---3-3-3--3-3-3--3-3-3--3-3-3--3-3-3--3-3-3--3-3-3-2-2-2---|
C|---3-3-3--3-3-3--3-3-3--3-3-3--3-3-3--3-3-3----------------|

D|--------------------------------|
A|--------------------------------|
F|---2-2-2--2-2-2--2-2-2--2-2-2---|4x
C|---2-2-2--2-2-2--2-2-2--2-2-2---|
G|---0-0-0--0-0-0--0-0-0--0-0-0---|
C|--------------------------------|

(rhythm - under solo)
D|-------------------------------------------------------------------------------------|
A|-------------------------------------------------------------------------------------|
F|---7--7-7-7--7--7-7-7--7--7-7-7--7--7-7-7--10-101010-10-101010-12-121212-14-141414---|
C|---7--7-7-7--7--7-7-7--7--7-7-7--7--7-7-7--10-101010-10-101010-12-121212-14-141414---|
G|---5--5-5-5--5--5-5-5--5--5-5-5--5--5-5-5--8--8-8-8--8--8-8-8--10-101010-12-121212---|
C|-------------------------------------------------------------------------------------|

D|-------------------------------------------------------------------------------------|
A|-------------------------------------------------------------------------------------|
F|---7--7-7-7--7--7-7-7--7--7-7-7--7--7-7-7--10-101010-10-101010-12-121212-9--9-9-9----|
C|---7--7-7-7--7--7-7-7--7--7-7-7--7--7-7-7--10-101010-10-101010-12-121212-9--9-9-9----|
G|---5--5-5-5--5--5-5-5--5--5-5-5--5--5-5-5--8--8-8-8--8--8-8-8--10-101010-7--7-7-7----|
C|-------------------------------------------------------------------------------------|

D|-------------------------------------------------------------------------------------|
A|-------------------------------------------------------------------------------------|
F|---7--7-7-7--7--7-7-7--7--7-7-7--7--7-7-7--10-101010-10-101010-12-121212-14-141414---|
C|---7--7-7-7--7--7-7-7--7--7-7-7--7--7-7-7--10-101010-10-101010-12-121212-14-141414---|
G|---5--5-5-5--5--5-5-5--5--5-5-5--5--5-5-5--8--8-8-8--8--8-8-8--10-101010-12-121212---|
C|-------------------------------------------------------------------------------------|

D|-------------------------------------------------------------------------------------|
A|-------------------------------------------------------------------------------------|
F|---7--7-7-7--7--7-7-7--7--7-7-7--7--7-7-7--10-101010-10-101010-12-121212-9--9-9-9----|
C|---7--7-7-7--7--7-7-7--7--7-7-7--7--7-7-7--10-101010-10-101010-12-121212-9--9-9-9----|
G|---5--5-5-5--5--5-5-5--5--5-5-5--5--5-5-5--8--8-8-8--8--8-8-8--10-101010-7--7-7-7----|
C|-------------------------------------------------------------------------------------|

(bridge 1)
D|-------------------------------------------------------------------------|
A|-------------------------------------------------------------------------|
F|---10-101010-10-101010-10-----13-----7--7-7-7--7--7-7-7--7------13-------|
C|---10-101010-10-101010-10-----13-----7--7-7-7--7--7-7-7--7------13-------|
G|---8--8-8-8--8--8-8-8--8------11-----5--5-5-5--5--5-5-5--5------11-------|
C|--------------------------0-0----0-0------------------------0-0----0-0---|

D|-------------------------------------------------------------------------|
A|-------------------------------------------------------------------------|
F|---10-101010-10-101010-10-----13-----7--7-7-7--7--7-7-7--7------13-------|
C|---10-101010-10-101010-10-----13-----7--7-7-7--7--7-7-7--7------13-------|
G|---8--8-8-8--8--8-8-8--8------11-----5--5-5-5--5--5-5-5--5------11-------|
C|--------------------------0-0----0-0------------------------0-0----0-0---|

D|-------------------------------------------------------------------------|
A|-------------------------------------------------------------------------|
F|---10-101010-10-101010-10-----13-----7--7-7-7--7--7-7-7--7------13-------|
C|---10-101010-10-101010-10-----13-----7--7-7-7--7--7-7-7--7------13-------|
G|---8--8-8-8--8--8-8-8--8------11-----5--5-5-5--5--5-5-5--5------11-------|
C|--------------------------0-0----0-0------------------------0-0----0-0---|

D|---------------------------------------------------------------------------|
A|---------------------------------------------------------------------------|
F|---10-101010-10-101010-10-----13-----7--7-7-7--7--7-7-7--7--7-7-7--7-7-7---|
C|---10-101010-10-101010-10-----13-----7--7-7-7--7--7-7-7--7--7-7-7--7-7-7---|
G|---8--8-8-8--8--8-8-8--8------11-----5--5-5-5--5--5-5-5--5--5-5-5--5-5-5---|
C|--------------------------0-0----0-0---------------------------------------|

D|-----------------------------|
A|-----------------------------|
F|---4-5-5-5-------------------|12x
C|---4-5-5-5-2-2-2-2-3-3-3-5---|
G|---2-3-3-3-2-2-2-2-3-3-3-5---|
C|-----------2-2-2-2-3-3-3-5---|


D|--------------------------------------------------------------------------|
A|--------------------------------------------------------------------------|
F|---------------------------------------------------------------5------4---|
C|---3--3-3-3--3--3-3-3--3--3-3-3--3--3-3-3--5--5-5-5--5--5-5-5--5------4---|
G|---3--3-3-3--3--3-3-3--3--3-3-3--3--3-3-3--5--5-5-5--5--5-5-5--3------2---|
C|---3--3-3-3--3--3-3-3--3--3-3-3--3--3-3-3--5--5-5-5--5--5-5-5-----0-0-----|

D|--------------------------------|
A|--------------------------------|
F|---2-2-2--2-2-2--2-2-2--2-2-2---|4x
C|---2-2-2--2-2-2--2-2-2--2-2-2---|
G|---0-0-0--0-0-0--0-0-0--0-0-0---|
C|--------------------------------|

(melody)
D|-------------------------------------------------------------------|
A|-------------------------------------------------------------------|
F|----9-7-------------------7----7-9-9-7------------------7----------|
C|---------10--10-10-9--9-9---10---------10--10-10-9--9-9---9-10-7---|
G|-------------------------------------------------------------------|
C|-------------------------------------------------------------------|

D|-----------------------------------------------------------------|
A|-----------------------------------------------------------------|
F|----9-7-------------------7----7-9-9-7------------------7--------|
C|---------10--10-10-9--9-9---10---------10--10-10-9--9-9---9-10---|
G|-----------------------------------------------------------------|
C|-----------------------------------------------------------------|

(outro)
D|----------------------------------------------------------------------------|
A|----------------------------------------------------------------------------|
F|----------------------------------------------------------------------------|
C|---5/7--5--3----------3--5--7----------5/7--5--3----------3--5--7----7777---|
G|---5/7--5--3----------3--5--7----------5/7--5--3----------3--5--7----7777---|
C|---5/7--5--3----------3--5--7----------5/7--5--3----------3--5--7----7777---|

D|---------------------------------------------------------------------|
A|---------------------------------------------------------------------|
F|--------------------------------------------------------------2~-----|
C|---5/7--5--3----3333--3--5--7----7777--5/7--5--3----3333--3---2~-----|
G|---5/7--5--3----3333--3--5--7----7777--5/7--5--3----3333--3---0~-----|
C|---5/7--5--3----3333--3--5--7----7777--5/7--5--3----3333--3---0~-----|

(outro lick - play while rapidly playing the G chord from the last figure)
D|----------------------|
A|----------------------|
F|---7------------------|
C|-------10---9-10-7~---|
G|----------------------|
C|----------------------|
Tap to rate this tab
# A B C D E F G H I J K L M N O P Q R S T U V W X Y Z