Song name
# A B C D E F G H I J K L M N O P Q R S T U V W X Y Z

Bathory - Screaming Blood Monkey tab

Help us improve GuitareTab! Take a short survey!
-------------------------------------------------------------------------------
			     raping virgins - screaming blood monkey
-------------------------------------------------------------------------------
Tabbed by:seth reneaux
Email:

Tuning:normal(use heavy distortion)

e|--0-----1-----2----0----1----2---0--1--2--0--1--2--1--2--------------------|
B|--0-----1-----2----0----1----2---0--1--2--0--1--2--1--2--------------------|
G|--3-----3-----3----3----3----3---3--3--3--3--3--3--3--3--------------------|
D|--4-----4-----4----4----4----4---4--4--4--4--4--4--4--4--------------------|
A|--0-----1-----2----0----1----2---0--1--2--0--1--2--1--2--------------------|
E|--0-----1-----3----0----1----2---0--1--2--0--1--2--1--2--------------------|

e|---------------------------------------------------------------------------------------|
B|---------------------------------------------------------------------------------------|
G|---------------------------------------------------------------------------------------|
D|---------------------------------------------------------------------------------------|
A|---0----0----0---------------------0---0---0-------------------------------------------|
E|---5----8----7---6p5p3--5h6-0h3----5---8---7--6p5p3--5h6-0h3---------------------------|
Related for Screaming Blood Monkey tab