Batmobile - Mad At You tab

Batmobile - Mad At You
Tuning : Standard
NOTE : Use heavy reverb, und listen to actual song for strumming und pauses.
Tabbed by anarchoalan
INTRO Play 2x
E--9-9-9-9-9-9-9-12-12-12-12-12-12-12-11-11-11-11-11-11-11-11----------|
B--9-9-9-9-9-9-9-9--9--9--9--9--9--9--9--9--9--9--9--9--9--------------|
G----------------------------------------------------------------------|
D----------------------------------------------------------------------|
A----------------------------------------------------------------------|
E----------------------------------------------------------------------|

VERSE Play 4x
E--9-9-9-9-9-9-9/12-12-12-12-12-5-5-5-5/7-7-7-7-7----------------------|
B--9-9-9-9-9-9-9/9--9--9--9--9--5-5-5-5/7-7-7-7-7----------------------|
G----------------------------------------------------------------------|
D----------------------------------------------------------------------|
A----------------------------------------------------------------------|
E----------------------------------------------------------------------|

CHORUS Play 4x
E----------------------------------------------------------------------|
B----------------------------------------------------------------------|
G----------------------------------------------------------------------|
D--7-7-7-7-7-7-7/10-10-10-10-10-10-8-8-8-8-8/10-10-10-10-10-10---------|
A--5-5-5-5-5-5-5/8--8--8--8--8--8--8-8-8-8-8/10-10-10-10-10-10---------|
E----------------------------------6-6-6-6-6/8--8--8--8--8--8----------|


BRIDGE
E----------------------------------------------------------------------|
B----------------------------------------------------------------------|
G--7-----------7-------------------------------------------------------|
D--7--3--5--7--7--3--5--7*letring--------------------------------------|
A--5--3--5--7--5--3--5--7*---------------------------------------------|
E-----1--3--5-----1--3--5*---------------------------------------------|

VERSE Play 4x
E--9-9-9-9-9-9-9/12-12-12-12-12-5-5-5-5/7-7-7-7-7----------------------|
B--9-9-9-9-9-9-9/9--9--9--9--9--5-5-5-5/7-7-7-7-7----------------------|
G----------------------------------------------------------------------|
D----------------------------------------------------------------------|
A----------------------------------------------------------------------|
E----------------------------------------------------------------------|

CHORUS Play 4x
E----------------------------------------------------------------------|
B----------------------------------------------------------------------|
G----------------------------------------------------------------------|
D--7-7-7-7-7-7-7/10-10-10-10-10-10-8-8-8-8-8/10-10-10-10-10-10---------|
A--5-5-5-5-5-5-5/8--8--8--8--8--8--8-8-8-8-8/10-10-10-10-10-10---------|
E----------------------------------6-6-6-6-6/8--8--8--8--8--8----------|

BRIDGE
E----------------------------------------------------------------------|
B----------------------------------------------------------------------|
G--7-----------7-------------------------------------------------------|
D--7--3--5--7--7--3--5--7*letring--------------------------------------|
A--5--3--5--7--5--3--5--7*---------------------------------------------|
E-----1--3--5-----1--3--5*---------------------------------------------|

SOLO Play 4x
E--9-9-9-9-9-9-9-12-12-12-12-12-12-12-11-11-11-11-11-11-11-11----------|
B--9-9-9-9-9-9-9-9--9--9--9--9--9--9--9--9--9--9--9--9--9--------------|
G----------------------------------------------------------------------|
D----------------------------------------------------------------------|
A----------------------------------------------------------------------|
E----------------------------------------------------------------------|

CHORUS Play 4x
E----------------------------------------------------------------------|
B----------------------------------------------------------------------|
G----------------------------------------------------------------------|
D--7-7-7-7-7-7-7/10-10-10-10-10-10-8-8-8-8-8/10-10-10-10-10-10---------|
A--5-5-5-5-5-5-5/8--8--8--8--8--8--8-8-8-8-8/10-10-10-10-10-10---------|
E----------------------------------6-6-6-6-6/8--8--8--8--8--8----------|

BRIDGE
E----------------------------------------------------------------------|
B----------------------------------------------------------------------|
G--7-----------7-------------------------------------------------------|
D--7--3--5--7--7--3--5--7*letring--------------------------------------|
A--5--3--5--7--5--3--5--7*---------------------------------------------|
E-----1--3--5-----1--3--5*---------------------------------------------|

VERSE Play 4x
E--9-9-9-9-9-9-9/12-12-12-12-12-5-5-5-5/7-7-7-7-7----------------------|
B--9-9-9-9-9-9-9/9--9--9--9--9--5-5-5-5/7-7-7-7-7----------------------|
G----------------------------------------------------------------------|
D----------------------------------------------------------------------|
A----------------------------------------------------------------------|
E----------------------------------------------------------------------|

CHORUS Play 4x
E----------------------------------------------------------------------|
B----------------------------------------------------------------------|
G----------------------------------------------------------------------|
D--7-7-7-7-7-7-7/10-10-10-10-10-10-8-8-8-8-8/10-10-10-10-10-10---------|
A--5-5-5-5-5-5-5/8--8--8--8--8--8--8-8-8-8-8/10-10-10-10-10-10---------|
E----------------------------------6-6-6-6-6/8--8--8--8--8--8----------|

OUTRO
E----------------------------------------------------------------------|
B----------------------------------------------------------------------|
G--7-------------------------------------------------------------------|
D--7--3--5--7*letring--------------------------------------------------|
A--5--3--5--7*---------------------------------------------------------|
E-----1--3--5*---------------------------------------------------------|
   -enjoy, solo ,ight be off but hey i dont know it that well big woop.
Tap to rate this tab
 
# A B C D E F G H I J K L M N O P Q R S T U V W X Y Z