Song name
# A B C D E F G H I J K L M N O P Q R S T U V W X Y Z

Batmobile - Hallelujah tab

-----------------------------------------------------------------------------
                  Hellalujah-Batmobile And Peter Pan SpeedRock
-----------------------------------------------------------------------------
Artist:Batmobile And Peter Pan SpeedRock
Album:Crosscontamination 
Song:Hellalujah
Tuning:Standard

*Please Rate And Comment*

Intro:
there's two ways you can play the intro 
Intro 1:
e--------------------------|------------------|--------------------------|
b--------------------------|------------------|--------------------------|
g-4--6--7---9---7-6--7-6---|-4--6--7--6-------|-4--6--7---9---7-6--7-6---|
d--------------------------|------------7-5---|--------------------------|
a--7--7--7-7-7-7--------7-7|--7--7--7--7----7-|--7--7--7-7-7-7--------7-7|
e--------------------------|------------------|--------------------------|

e--------------------|
b--------------------|
g-4--6--7--6---------|
d---------------7-5--|repeat once more
a--7--7--7----7-----7|
e--------------------|

Or Intro:2
e---------------------------------------|
b---------------------------------------|
g---------------------------------------|
d---------------------------------------| which ever one you want to play
a-2-4-5---7---5-4--5-4---2-4-5-4--------|
e--0-0-0-0-0-0--------0-0-0-0-0--5-3-0--|

Repeat Intro 

Verse:
e-------------------------------------|
b-------------------------------------|
g-9~-------------14-12--12-9~---------|
d-9~-------------14-12--12-9~---------|repeat
a-7~-------------14-12--12-9~---------|
e-------------------------------------|
......kick'n ass

e--------------------------|------------------|
b--------------------------|------------------|
g-4--6--7---9---7-6--7-6---|-4--6--7--6-------|
d--------------------------|------------7-5---|
a--7--7--7-7-7-7--------7-7|--7--7--7--7----7-|
e--------------------------|------------------|


Verse:
e-------------------------------------|
b-------------------------------------|
g-9~-------------14-12--12-9~---------|
d-9~-------------14-12--12-9~---------|repeat
a-7~-------------12-10--10-7~---------|
e-------------------------------------|
......kick'n ass

Chorus:
e-----------------------------|---------------------------|
b-----------------------------|---------------------------|
g-9--9-12-14--14--14--14-12-9-|-9--9-7-6--14--14--14-12-9-|
d-9--9-12-14--14--14--14-12-9-|-9--9-7-6--14--14--14-12-7-|
a-----------------------------|---------------------------|
e-----------------------------|---------------------------|

e--------------------------|------------------|
b--------------------------|------------------|
g-4--6--7---9---7-6--7-6---|-4--6--7--6-------|
d--------------------------|------------7-5---|
a--7--7--7-7-7-7--------7-7|--7--7--7--7----7-|
e--------------------------|------------------|

Verse:
e-------------------------------------|
b-------------------------------------|
g-9~-------------14-12--12-9~---------|
d-9~-------------14-12--12-9~---------|repeat
a-7~-------------12-10--10-7~---------|
e-------------------------------------|
......kick'n ass

Chorus:
e-----------------------------|---------------------------|
b-----------------------------|---------------------------|
g-9--9-12-14--14--14--14-12-9-|-9--9-7-6--14--14--14-12-9-|
d-9--9-12-14--14--14--14-12-9-|-9--9-7-6--14--14--14-12-7-|
a-----------------------------|---------------------------|
e-----------------------------|---------------------------|

e--------------------------|------------------|--------------------------|
b--------------------------|------------------|--------------------------|
g-4--6--7---9---7-6--7-6---|-4--6--7--6-------|-4--6--7---9---7-6--7-6---|
d--------------------------|------------7-5---|--------------------------|
a--7--7--7-7-7-7--------7-7|--7--7--7--7----7-|--7--7--7-7-7-7--------7-7|
e--------------------------|------------------|--------------------------|

e--------------------|
b--------------------|
g-4--6--7--6---------|
d---------------7-5--|
a--7--7--7----7-----7|
e--------------------|
solo:
e---------------------------|
b----------------5b-5b------|
g---------------5-----7p5---|repeat 
d--------0-2-4-5------------|
a-0-0-3-0-0-0-0-------------|
e---------------------------|

e--------------------------------------------------|
b-9w--9-12-14w-14w--14-12-9w--9w-9-7-6-9w--14-12---|
g-9w--9-12-14w-14w--14-12-9w--9w-9-7-6-9w--14-12---|
d--------------------------------------------------|
a--------------------------------------------------|
e--------------------------------------------------|

e--------------------------|------------------|
b--------------------------|------------------|
g-4--6--7---9---7-6--7-6---|-4--6--7--6-------|
d--------------------------|------------7-5---|
a--7--7--7-7-7-7--------7-7|--7--7--7--7----7-|
e--------------------------|------------------|

e-------------------------------------|
b-------------------------------------|
g-9~-------------14-12--12-9~---------|
d-9~-------------14-12--12-9~---------|repeat
a-7~-------------12-10--10-7~---------|
e-------------------------------------|
......kick'n ass

Chorus:
e-----------------------------|---------------------------|
b-----------------------------|---------------------------|
g-9--9-12-14--14--14--14-12-9-|-9--9-7-6--14--14--14-12-9-|
d-9--9-12-14--14--14--14-12-9-|-9--9-7-6--14--14--14-12-7-|
a-----------------------------|---------------------------|
e-----------------------------|---------------------------|

Outro:
e-----------|
b-14-12--9--|
g-14-12--9--|x3
d-----------|
a-----------|
e-----------|
Tap to rate this tab
 
# A B C D E F G H I J K L M N O P Q R S T U V W X Y Z