Song name
# A B C D E F G H I J K L M N O P Q R S T U V W X Y Z

Battalion Of Saints - My Minds Diseased tab

-------------------------------------------
| Batallion of Saints - My Minds Diseased |
-------------------------------------------
Tabbed by: fungusigloo
Email: fungusigloo@yahoo.com

Tuning: Standard

Rhythm A
e|-------------------------|
B|-------------------------|
G|-------------------------|
D|-------7-8-8-------9-9-9-|
A|-7-7-7-5-6-6-7-7-7-7-7-7-|
E|-5-5-5-------5-5-5-------|

Rhythm B
e|---------------------------|
B|---------------------------|
G|---------------------------|
D|-11-11-11-12-7-7-9-9-7-9-9-|
A|--9--9--9-10-5-5-7-7-5-7-7-|
E|---------------------------|

Rhythm C
e|--------------------|
B|--------------------|
G|--------------------|
D|---77---55----------|
A|-7-55-5-33-22222222-|
E|-5----3----00000000-|

End
e|---------------------------|
B|---------------------------|
G|---------------------------|
D|-11-11-11-12-7-------------|
A|--9--9--9-10-5-7/----------|
E|---------------5/----------|


Order:
A x6
B x4
A x4
B x4
C x4
A x4
B x4
C x4
A x4
B x4
End

Tap to rate this tab
# A B C D E F G H I J K L M N O P Q R S T U V W X Y Z