Song name
# A B C D E F G H I J K L M N O P Q R S T U V W X Y Z

Battle - Tendency tab

e|------------------------------------------------------------------------------|
B|------------------------------------------------------------------------------|
G|------------------------------------11-11-11----------------------------------|
D|--------------9-----------9---------------------------------------------------|
A|-----11-9-11------11-9-11----11-----------------------------------------------|
E|------------------------------------------------------------------------------|

e|---------------------------------------------------------------------------|
B|---------------------------------------------------------------------------|
G|---------------------------------------------------------------------------|
D|--------------9-----------9---------11-11-11-11-11-11----------------------|
A|-----11-9-11------11-9-11-----------11-11-11-11-11-11----------------------|
E|-------------------------------9----9--9--9--9--9--9-----------------------|
Tap to rate this tab
 
# A B C D E F G H I J K L M N O P Q R S T U V W X Y Z