Song name
# A B C D E F G H I J K L M N O P Q R S T U V W X Y Z

Battlecross - Force Fed Lies tab

                                              BATTLECROSS - "Force Fed Lies"

Tabbed by: Dropdaltdtob

Tuning: Drop D

Not the entire song, but some of the first riffs

I'm pretty sure all the harmonies are right.

INTRO RIFF   -  3 TIMES

|------------------|------------------|-----------------|------------------|
|------------------|------------------|-----------------|------------------|
|------------------|------------------|-----------------|------------------|
|-7--------8---7-5-|7--------8---8-10-|8--------7---7-8-|7-----------------|
|-5--------6---5-3-|5--------6---6-8--|6--------5---5-6-|5-----------------|
|---00-0-0---0-----|--00-0-0---0------|--00-0-0---0-----|--00-0-0-0-00-0-0-|
    .. . .   .        .. . .   .         .. . .   .        .. . . . .. . .

|------------------|------------------|-----------------|------------------|
|------------------|------------------|-----------------|------------------|
|------------------|------------------|-----------------|------------------|
|-7--------8---7-5-|7--------8---8-10-|8--------7---7-8-|7---------6-------|
|-5--------6---5-3-|5--------6---6-8--|6--------5---5-6-|--9-8-6-5---8-7---|
|---00-0-0---0-----|--00-0-0---0------|--00-0-0---0-----|------------------|
    .. . .   .        .. . .   .         .. . .   .        . . . .   . .

Guitar 2 - 5th harmony ending, ONLY on ending of 3rd repeat

                                                        |----------------------|
                                                        |----------------------|
                                                        |----------------------|
                                                        |14-----------13-------|
                                                        |--16-15-13-12---15-14-|
                                                        |----------------------|

VERSE RIFF

Guitar 1
|----------------|----------------|----------------|----------------------|
|----------------|----------------|----------------|----------------------|
|----------------|----------------|----------------|----------------------|
|----------------|----------------|----------------|7------------6--------|
|----------------|----------------|----------------|--9--8--6--5----8--7--|
|0-0-0-0-0-0-0-0-|0-0-0-0-0-0-0-0-|0-0-0-0-0-0-0-0-|----------------------|
   . . . . . . .    . . . . . . .    . . . . . . .

Guitar 2
|----------------|----------------|----------------|----------------------|
|----------------|----------------|----------------|----------------------|
|----------------|----------------|----------------|----------------------|
|----------------|----------------|----------------|14-----------13-------|
|----------------|----------------|----------------|--16-15-13-12---15-14-|
|0-0-0-0-0-0-0-0-|0-0-0-0-0-0-0-0-|0-0-0-0-0-0-0-0-|----------------------|
   . . . . . . .    . . . . . . .    . . . . . . .

That part 3 times, and then on the 4th time guitar 2 changes to a different harmony :

Guitar 2
|----------------|----------------|----------------|--------------------|
|----------------|----------------|----------------|--------------------|
|----------------|----------------|----------------|--------------------|
|----------------|----------------|----------------|10----------9-------|
|----------------|----------------|----------------|--12-11-9-8---11-10-|
|0-0-0-0-0-0-0-0-|0-0-0-0-0-0-0-0-|0-0-0-0-0-0-0-0-|--------------------|
   . . . . . . .    . . . . . . .    . . . . . . .


Tried to work out chorus but i kept on second guessing the notes :(
Tap to rate this tab
 
# A B C D E F G H I J K L M N O P Q R S T U V W X Y Z