Song name
# A B C D E F G H I J K L M N O P Q R S T U V W X Y Z

Battlecross - Push Pull Destroy tab

Push Pull Destroy - Battlecross


e|------------------------------------------|
B|------------------------------------------|
G|----2h4-2---------------------------------|
D|---4-----0h2-0-----------4--0---0----0----|
A|-/2----2-------4-2-----/2--2---2--/4--4---|
E|----------------------0------/3-----5-----|

e|--------------------------------------------|
B|--------------------------------------------|
G|-------2------------------------------------|
D|---2h4--4-0-0h2-0-----------2h4-0---0----0--|
A|-/2------2--------4-2-----/2---2---2--/4--4-|
E|-------------------------0-------/3-----5---|

e|---------------------------------------------------|
B|---------------------------------------------------|
G|-------2----2/4------------------------------------|
D|---2h4--4---4---0h2-4-0------------2h4-0---0----0--|
A|-/2-------2-------------4-0-----/2----2---2--/4--4-|
E|--------------------------------0-------/3-----5---|

e|--------------------------------------------------------------|
B|--------------------------------------------------------------|
G|-------------2-2/4--------------------------------------------|
D|---2h4-0-4--------4p0------------2h4-0--------------------0---|
A|-/2---------2---------4p0------/2---2---------2----/4-4-4/5---|
E|------------------------------0-------------/3-3-----5----5---|


Index;

Slide up: /
Slide down: \
Hammer on: h
Pull off: p
Tap to rate this tab
# A B C D E F G H I J K L M N O P Q R S T U V W X Y Z