Song name
# A B C D E F G H I J K L M N O P Q R S T U V W X Y Z

Battlefield Band - Last Trip Home tab

Highlighted       Show chord diagrams
-------------------------------------------------------------------------------
			     THE LAST TRIP HOME - Battlefield Band
-------------------------------------------------------------------------------
Tabbed by: Chris W.
Email: johnhannsmith@gmail.com

Album: "Leaving Friday Harbor" (1999)
Written by: Davy Steele (R.I.P.)

Note: I apologize to all of those who actually know the technical names of the chords I 
but I do know most of these are simple variations on other known chord formations.

Tuning: Standard

e|-X----X------X--------X--------0---------------------------------|
B|-3----3------3--------3--------3---------------------------------|
G|-0----2------2--------2--------2---------------------------------|
D|-0----0------0--------0--------2---------------------------------|
A|-2----X------0--------2--------X---------------------------------|
E|-3----X------2--------X--------X---------------------------------|
   G  Dsus2 Dsus2/F#  Dsus2/B  Asus4

1st Verse:
G                 Dsus2      G      Dsus2/F#
A've ay worked on farms an' fae the start
     G     Dsus2  Dsus2/B   Asus4(repeat 
progressions)
The muckle horses won ma heart
Wi' big broad backs they proudly stand
The uncrowned kings o' aw the land
Dsus2/B     Dsus2/F#    G       Dsus2/B
An' yet for aw their power and strength
G              Dsus2/B   G        Asus4
They're as gentle as a summer's wind

Chorus:
Dsus2/F#  Asus4     Dsus2
So steady boys walk on
Dsus2/F#      G     Asus4
Oor work is nearly done
G       Dsus2/B      Dsus2/F#     G
No more we'll till or plough the fields,
Dsus2/F#     G        Asus4
The horses' day is gone
G        Dsus2/B     Dsus2/F#      G
An' this will be oor last trip home,
Dsus2/F#    Asus4    Dsus2
So steady boys walk on.

Riff: Dsus2 (pluck strings: D, G, B, G, but pull off on the 2nd G)
Tap to rate this tab
# A B C D E F G H I J K L M N O P Q R S T U V W X Y Z