Guitaretab - guitar tabs
Song name
# A B C D E F G H I J K L M N O P Q R S T U V W X Y Z

Battlelore - The Grey Wizard tab

Here's two idé's for The Grey Wizard Tablature.


[ Tab from: http://www.guitaretab.com/b/battlelore/104391.html ]
e|-0-2-3-2-0--10--2-0--2-3-2----|-0-2-3-2-0--7--2-0--2-3-2--------|
b|------------------------------|---------------------------------|
g|------------------------------|---------------------------------|
d|------------------------------|---------------------------------|
a|------------------------------|---------------------------------|
e|------------------------------|---------------------------------|

Or

e|---------------10---------------|---------------------------------|
b|--------------------------------|---------------12----------------|
g|-9-11-12-11-9-----11-9-11-12-11-|-9-11-12-11-9-----11-9-11-12-11--|
d|--------------------------------|---------------------------------|
a|--------------------------------|---------------------------------|
e|--------------------------------|---------------------------------|
Related for The Grey Wizard tab
Advertisement will be closed in 10 seconds