Guitaretab - guitar tabs
Song name
# A B C D E F G H I J K L M N O P Q R S T U V W X Y Z

Battlelore - House Of Heroes tab

Here are the tabs for the whole song apart from the acoustic sections.
Please comment and suggest improvments

Tuning is 2.5 steps down (B E A D F# B)

ORDER
acoustic part 1
guitar 1 playes part1x2, guitar 2 plays part2x2
guitar 1 and 2 play part2x2
guitar 1 and 2 play part3x2 and part4x2
guitar 1 playes part1x2, guitar 2 plays part2x2
guitar 1 and 2 play part2x2 - let the last note ring
acoustic part 2
guitar 1 and 2 play part5 then part6
guitar 1 playes part1x2, guitar 2 plays part2x2
guitar 1 and 2 play part2x2 - let the last note ring

(part 1)
e|------------------------------|---------------------------------|
b|------------------------------|---------------------------------|
g|------------------------------|---------------------------------|
d|--------3-3-3-----------------|-7-9-10-9-797-7-9-10-9-795--4----|
a|-2-2-22-2-2-2-----------------|---------------------------------|
e|-0-0-00----------2-3-2-0------|---------------------------------|

(part2)
e|------------------------------|---------------------------------|
b|------------------------------|---------------------------------|
g|------------------------------|---------------------------------|
d|--------3-3-3-----------------|---------------------------------|
a|-2-2-22-2-2-2-----------------|-9-9-9-7-7-777-9-9-9-5-5-4-4-----|
e|-0-0-00----------2-3-2-0------|-7-7-7-5-5-555-7-7-7-3-3-2-2-----|
[ Tab from: http://www.guitaretab.com/b/battlelore/105597.html ]
(part3)
e|------------------------------|---------------------------------|
b|------------------------------|---------------------------------|
g|------------------------------|---------------------------------|
d|---------------------5-5-5-4--|---------------------------------|
a|-2-2-22-2-2-22-2--2--3-3-3-2--|-2-2-22-2-2-22-2--2--5-5-5-4-----|
e|-0-0-00-0-0-00-0--0-----------|-0-0-00-0-0-00-0--0--3-3-3-2-----|

(part4)
e|-------------------------------|---------------------------------|
b|-------------------------------|---------------------------------|
g|-------------------------------|---------------------------------|
d|-------------------------------|---------------------------------|
a|-2-2-22------------77 10-10-9-9|-2-2-22--------------5---4-------|
e|-0-0-00-0-2-7-5--5-55-8- 8- 7-7|-0-0-00-0-2-7-5--5-003-002-------|

(part5)	  
e|-------------------------------|---------------------------------|
b|-------------------------------|---------------------------------|
g|-------------------------------|---------------------------------|
d|-------------------------------|---------------------------------|
a|---2----5----2----5------------|---2-----5----2----2---2---------|
e|0--0-00-3-0--0-00-3------------|0--0-0-0-3--0-0--000-000---------|

(part6)
e|-------------------------------|---------------------------------|
b|-------------------------------|---------------------------------|
g|-------------------------------|---------------------------------|
d|-------------------------------|---------------------------------|
a|---2----5----2----5------------|---2-----5----2----2---2---------|
e|0--0-00-3-0--0-00-3------------|0--0-0-0-3--000--000-000---------|


Related for House Of Heroes tab
Advertisement will be closed in 10 seconds