Song name
# A B C D E F G H I J K L M N O P Q R S T U V W X Y Z

Battles - Atlas tab

There aren't many parts that I can tab out on here, but I'm going to try my best! This
song is tweaked around with pedals, looping, and sampling, so it's not much of a
guitar-type of song. This tab is more based towards the live performances from 2007 to 
2010, so enjoy!

INTRO: Ian (Guitar)
e|-----------------------|
B|-----------------------|
G|-----------------------|
D|-----------------------|
A|-----------------------|
E|-10--10--10--10b11--10-|

*Ian's part is basically just that mixed with hitting a "D" on a keyboard in sync, but
that's basically all there is to that part.*

INTRO: Ty (Guitar Loop)

e|----------------|
B|----------------|
G|----------------|
D|(0)-------------|
A|-0--------------|
E|-0--------------|

*Honestly, I'm very curious to what Tyondai plays for that distorted-industrial sounding
loop. I'm pretty sure it's just E, A, and D open. If it is not that, he has multiple
over-laid effects on it and it could honestly be a grouping/chord of harmonics. It's 
hard to tell, I apologize...*

Pre-Chorus/Pre-Verse?*: Dave (Bass)

G|---------------|
D|---------------|
A|---------------|
E|5/14-----------|

*From what it sounds like, it sounds like Dave has a bunch of bass/crunch on this part
of the song. Only on this part.*

Pre-Chorus/Pre-Verse?*: Ian (Guitar)
*Honestly, I don't think this part matters... ...but I believe it's just mutes to the rhythm.*

Chorus/Verse?*: Dave (Clean Bass)

G|----------------------------------------|
D|-------------------------------14p12/---|
A|----------------------------------------|
E|x-x-x-10-x-x-x-10-x-x-x-10-x-x----------|

Ian: (Guitar/Keyboard)
e|----------------------------------------|
B|----------------------------------------|
G|----------------------------------------|
D|----------------------------------------|
A|----------------------------------------|
E|x-x-x-10-x-x-x-10-x-x-x-10-x-x-12p10/---|


Interlude to Bridge/"Solo": Ty, Ian, and Dave: (Guitar, Bass, Keyboards)

Dave:

G|--------------------|
D|--------------------|
A|--------------------|
E|10/2-2-2-2-2-2-2-2--|

Ty/Ian:

e|---------------------------|
B|---------------------------|
G|-987987987987987987987987--|
D|---------------------------|
A|---------------------------|
E|---------------------------|

Bridge/"Solo"/Outro (Ian):

Ty/Ian:

e|---------------------------------------------|
B|-----------11---------------11---------------|
G|-9-9-9-9--9--9--9-9987--9--9--9--9-974974974-|
D|---------------------------------------------|
A|---------------------------------------------|
E|---------------------------------------------|

*That will loop many times in either version of the song.*

*Also, at a certain point, this part will do this...*

e|------------------------|
B|--11------14-14-14------|
G|-9--9-9-99--------------|
D|------------------------|
A|------------------------|
E|------------------------|


Ty/Ian:

e|---------------------------|
B|---------------------------|
G|-974974974974974974974974--|
D|---------------------------|
A|---------------------------|
E|---------------------------|



That is basically what I have at the moment, I will try and find more. But if you have
any suggestions, message me!
Tap to rate this tab
# A B C D E F G H I J K L M N O P Q R S T U V W X Y Z