Song name
# A B C D E F G H I J K L M N O P Q R S T U V W X Y Z

Bauhaus - Telegram Sam tab

()-let ring
/-slide
Intro/Verse
e----------------|
B----------------|
G----------------|
D----------------|
A----4/x-7--(7)--|
E----2/x-5--(5)--|
Chorus
e-----------------|
B-----------------|
G-----------------|
D-----------------|
A--------10-9-8-7-|
E--------8--7-6-5-|
verse 2
e----------------|
B----------------|
G----7b-5p7------|
D----------h7----|
A----------------|
E----------------|

For the other section when Peter Murphy sings
"I'm a howlin wolf for you" play the same as verse 2 palm mute it
Tap to rate this tab
# A B C D E F G H I J K L M N O P Q R S T U V W X Y Z