Song name
# A B C D E F G H I J K L M N O P Q R S T U V W X Y Z

Bauhaus - Silent Hedges tab

-------------------------------------------------------------------------------
			  Silent Hedges - Bauhaus
-------------------------------------------------------------------------------
Tabbed by: Myself
Email: cpochie92@gmail.com

Tuning: Standard

This is tabbed to the way Daniel Ash plays it on the Gotham live album. To get the most 
accurate sound, play with a twelve string guitar.

Verse Riff:

Can be fingerpicked, but sounds best with a pick.

 Following the silent /   hedges

e|---------0----------|--------0---------|
B|-------0---0---0----|------0---0---0---|
G|-----0-------0---0--|----0-------0---0-|
D|---2----------------|--1---------------|
A|--------------------|------------------|
E|--------------------|------------------|


  Looking into purple /  eyes

e|---------0----------|--------0---------|
B|-------0---0---0----|------0---0---0---|
G|-----0-------0---0--|----0-------0---0-|
D|---0----------------|--1---------------|
A|--------------------|------------------|
E|--------------------|------------------|


  Sadness at the  cor / ners

e|---------0----------|------------------|
B|-------0---0---0----|------------------|
G|-----0-------0---0--|--2-2-2-2-2-2-2-0-|
D|---0----------------|--2-2-2-2-2-2-2-2-|
A|--------------------|------------------|
E|--------------------|------------------|


Bridge Chords

      Em             F
Going to hell aga - in

  Em      F
(-in)   (-in)

   G
Oh - oh oh - oh
                    x2
   F
Oh - oh oh - oh

End on Em into the final verse.
Tap to rate this tab
# A B C D E F G H I J K L M N O P Q R S T U V W X Y Z