Song name
# A B C D E F G H I J K L M N O P Q R S T U V W X Y Z

Bauhaus - All We Ever Wanted tab

-------------------------------------------------------------------------------
			     ALL WE EVER WANTED - BAUHAUS
-------------------------------------------------------------------------------
Tabbed by:suzy_flash
Email: suzy_flash@hotmail.com



intro (slower than slow)

|-----------------------------------------------------|
|-----------------------------------------------------|
|-----------------------------------------------------|
|----2----2----3----2----2----2----3--3---------------|
|--0-3--3-0--0-0--0-0--0-3--3-0--0-0------------------|
|-----------------------------------------------------|


picking part

|--------------------------------------------------------------------|
|--------------------------------------------------------------------|
|-----0-------0-------0-------0----------0-------0-------0-------0---|
|---0---0---0---0---0---0---0--------0-------0-------0-------0-------|
|-3-------3-------3-------3-----3-/2---2---2---2---2---2---2---2-----|
|--------------------------------------------------------------------|

strumming part (with cream)

|--------------------------------------|
|--------------------------------------|
|--------------------------------------|
|--2-2-2-2-2-2-2-2-2-2-2-2-2-3-2-3-2---|
|--3-3-3-3-3-3-3-3-3-0-0-0-0-0-0-0-0---|
|--------------------------------------|


the 'oooh' (without the cream) part:

C (&variations) -> G -> F

|-----------------------------------------------------------------------|
|-----------------------------------------------------------------------|
|-----------------------------------------------------------------------|
|--2-2-2-2-2-2-2-2-2-2-2-2-2-3-3-3-3-0-0-0-0-0-0-0-0-0-0-0-0-3-3-3-3----|
|--3-3-3-3-3-3-3-3-3-0-0-0-0-0-0-0-0-2-2-2-2-2-2-2-2-2-2-2-2-3-3-3-3----|
|------------------------------------3-3-3-3-3-3-3-3-3-3-3-3-1-1-1-1----|



reactions or comments (suzy_flash@hotmail.com)

Tap to rate this tab
# A B C D E F G H I J K L M N O P Q R S T U V W X Y Z