Song name
# A B C D E F G H I J K L M N O P Q R S T U V W X Y Z

Bauhaus - Spy In The Cab tab

-------------------------------------------------------------------------------
			     The Spy in the Cab - Bauhaus
-------------------------------------------------------------------------------
Tabbed by: kizkizzbangbang
Email: blubbln@web.de

Tuning: Standard


Intro:

e|:---------0---0-0-0-------0---0-0-0-------0---0-0-0---0-0-0-0-0-0-0---:|
B|:-------0-------0-------0-1---1-0-0-----0-1---1-0-0---1-1-1-1-0-0-0---:|
G|:---2---------------2-------------------------------------------------:|
D|:-----------------------------------3---------------------------------:|
A|:---------------------------------------------------------------------:|
E|:---------------------------------------------------------------------:|


Verse:

e|:---------0---0-0-0-------0---0-0-0-------0---0-0-0---0-0-0-0-0-0-0---:|
B|:-------0-------0-------0-1---1-0-0-----0-1---1-0-0---1-1-1-1-0-0-0---:|
G|:---2---------------2-------------------------------------------------:|
D|:-----------------------------------3---------------------------------:|
A|:---------------------------------------------------------------------:|
E|:---------------------------------------------------------------------:|

Hidden in the dashboard
The unseen mechanized eye
Under surveillance
The road is full of cats eyes
Its sick function to pry
The spy in the cab

Coldly observing - callously reserving
A drivers time
Automated autonomy
Playing on his mind
The spy in the cab

The spy in the cab

e|----0-------------------------------0---------------0------------------|
B|----1-------------------------------1---------------1------------------|
G|----2-------------------------------2---------------2------------------|
D|----2-------------------------------3---------------3------------------|
A|-----------------------------------------------------------------------|
E|-----------------------------------------------------------------------|


e|:---------0---0-0-0-------0---0-0-0-------0---0-0-0---0-0-0-0-0-0-0---:|
B|:-------0-------0-------0-1---1-0-0-----0-1---1-0-0---1-1-1-1-0-0-0---:|
G|:---2---------------2-------------------------------0-----------------:|
D|:-----------------------------------3---------------------------------:|
A|:---------------------------------------------------------------------:|
E|:---------------------------------------------------------------------:|

An eye for an eye
A spy for an eye
An eye for an eye
A spy for a spy

A twenty-four hour unblinking watch
Installed to pry
Installed to cop
The spy in the cab

An eye for an eye
A spy for a spy
The spy in the cab
The spy in the cab
The spy in the caaaab

I spy with my little eye spy with my little eye spy with my little eye spy with my 
eye spy... spy... spy

e|----0-------------------------------0----------------------------------|
B|----1-------------------------------1----------------------------------|
G|----2-------------------------------2----------------------------------|
D|----2-------------------------------3----------------------------------|
A|-----------------------------------------------------------------------|
E|-----------------------------------------------------------------------|
Tap to rate this tab
# A B C D E F G H I J K L M N O P Q R S T U V W X Y Z