Song name
# A B C D E F G H I J K L M N O P Q R S T U V W X Y Z

Bayside - Dont Call Me Peanut Acoustic tab

Bayside - Don't Call Me Peanut
BAYSIDE
Tuning: Full Step Down (DGCFAD) or 1 1/2 Steps Down(live version)
Tabbed by Paolo Amador


The solo is based off of live version, everything else is based off the studio version.

1st guitar
D|-------0~-----------0---------0----------------|
A|-------0~-----------1---------3----------------|
F|-------0~---------2----2----4------------------|
C|----2--------0-/3--------/5--------------------|  x4
G|--/3-----------------------------0-------------|
D|-----------------------------------------------|

D|-------0~------1--4~----4----------------------|
A|-------0~------1--4~----4----------------------|
F|-------0~------2--5~----5----------------------|
C|----2--------3----4~----4----------------------|
G|--/3---------3----6~----6----------------------|
D|-------------1----4~----4----------------------|

D|-----------------------------------------------|
A|-----------------------------------------------|
F|---2------2--------0---0---0-------------------|
C|---2------2--------2---2---2-------------------|
G|-0---0-----------------------------------------|
D|--------4---4--3-3---3---3---3-----------------|


D|-----------------------------------------------|
A|-----------------------------------------------|
F|---2-----4--9--9-------------------------------|
C|---3-----5--10-8-------------------------------|
G|--3-----5---10-10------------------------------|
D|-1----/3----8--8-------------------------------|


D|--------------------------------------------------------|
A|-----0h1---0h1p0--------------------------------12-12---|
F|-----2-----2----2------4--4--------------------9---9----|
C|---2-----2-------0----2---2----7-9-10-10-----10----10---|
G|-0-------0-----------2-------/8-------8---/11------11---|
D|-------------------/4----4-4----------------------------|

D|--------------------------------------------------------------|
A|-----0h1---0h1p0----------------------------------------------|
F|-----2-----2----2------4--4-----------------------------------|
C|---2-----2-------0----2---2---7-9-10-10---9/-12121212121212---|
G|-0-------0-----------2------/8-------8----7/-10101010101010---|
D|-------------------/4----4------------------------------------|

======================================================================================

D|-------0~-----------0---------0----------------|
A|-------0~-----------1---------3----------------|
F|-------0~---------2----2----4------------------|
C|----2--------0-/3--------/5--------------------|  x4
G|--/3-----------------------------0-------------|
D|-----------------------------------------------|

D|-------0~------1--4~----4----------------------|
A|-------0~------1--4~----4----------------------|
F|-------0~------2--5~----5----------------------|
C|----2--------3----4~----4----------------------|
G|--/3---------3----6~----6----------------------|
D|-------------1----4~----4----------------------|

D|-----------------------------------------------|
A|-----------------------------------------------|
F|---2------2--------0---0---0-------------------|
C|---2------2--------2---2---2-------------------|
G|-0---0-----------------------------------------|
D|--------4---4--3-3---3---3---3-----------------|


D|-----------------------------------------------|
A|-----------------------------------------------|
F|---2-----4--9----------------------------------|
C|---3-----5--10---------------------------------|
G|--3-----5---10---------------------------------|
D|-1----/3----8---\3 ----------------------------|

D|--------------------------------------------------------|
A|-----0h1---0h1p0--------------------------------12-12---|
F|-----2-----2----2------4--4--------------------9---9----|
C|---2-----2-------0----2---2----7-9-10-10-----10----10---|
G|-0-------0-----------2-------/8-------8---/11------11---|
D|-------------------/4----4-4----------------------------|

D|---------------------------------------------------------------|
A|-----0h1---0h1p0-----------------------------------------------|
F|-----2-----2----2------4--4------------------------------------|
C|---2-----2-------0----2---2----7-9-10-10---9/-12121212121212---|
G|-0-------0-----------2-------/8-------8----7/-10101010101010---|
D|-------------------/4----4-4-----------------------------------|


======================================================================================


Solo 1st guitar
D|---------------------5*-5-----------3*-3---------------------|
A|---------------------6*-6-----------3*-3-----1-----1---------|
F|---9----9------------5*-5-----------0*-0-----0-----0---------|
C|---10---10-----------7*-7-----------0*-0----2--2--0--0-------|
G|-0----0----0--/7-6-5-5*-5-----------2*-2--/3-----2-----------|
D|---------------------------0-/5-4-3-3*-3---------------------| x 3


Solo 2nd guitar
D|-----------------------------------------------------|
A|-------------------------------------------12--------|
F|---------------------------------12------12--12------|
C|-/10-9-7~---7h9p7-----------10h12---10h12------------|
G|-------------------8/10-10---------------------------|
D|-----------------------------------------------------|

D|----------10-12-10--------------------------------------------|
A|-12b~-10----------12h13~--10----------------------------------|
F|--------12-------------------------10------10h11--10----------|
C|------------------------------10h12---10h12-----12*-12p10-----|
G|--------------------------------------------------------------|
D|--------------------------------------------------------------|

D|-------------------------------------------------------|
A|------------------12-----------------------------------|
F|----------------12--12~---/10-9-7----------------------|
C|-----------10h12-----------------10-8-8h10p8/7-5-3-----|
G|-/12p11-10---------------------------------------------|
D|-------------------------------------------------------|

======================================================================================


Both 1st and 2nd guitar until end of song
D|----------------------------------------------|
A|---------------------6------8--------10-------|
F|---9----9------------7------9-------10--------|
C|---10---10----------7------9------10----------|
G|-0----0----0--/7-6-5--5-5/7--7-7/8-----8------|
D|----------------------------------------------|

D|----------------------------------------------|
A|---------------12----12----12h13--------------|
F|---------------12----12----12-----------------|
C|-1212121212121212121212121212-----------------|
G|-1010101010101010101010101010-----------------|
D|----------------------------------------------|

D|--------------------------------------------------------|
A|-----0h1---0h1p0--------------------------------12-12---|
F|-----2-----2----2------4--4--------------------9---9----|
C|---2-----2-------0----2---2----7-9-10-10-----10----10---|
G|-0-------0-----------2-------/8-------8---/11------11---|
D|-------------------/4----4-4----------------------------|

D|---------------------------------------------------------------|
A|-----0h1---0h1p0-----------------------------------------------|
F|-----2-----2----2------4--4------------------------------------|
C|---2-----2-------0----2---2----7-9-10-10---9/-12121212121212~--|
G|-0-------0-----------2-------/8-------8----7/-10101010101010~--|
D|-------------------/4----4-4-----------------------------------|
Tap to rate this tab
# A B C D E F G H I J K L M N O P Q R S T U V W X Y Z