Song name
# A B C D E F G H I J K L M N O P Q R S T U V W X Y Z

Bayside - Thankfully tab

Thankfully Intro
I was just screwing around and I found it by ear.
(The fret numbers right below this, 66 4 6 11, thats not 11. Those are 1's)

D:-------------------------------------------------|
A:-------------------------------------------------|
F:-66-4-6-111--66-4-66-1b--------------------------|
C:-----------------------44-2-6-222--66-4-6666-----|
G:-------------------------------------------------|
D:-------------------------------------------------|x1

D:--------------------------------------------------|
A:--------------------------------------------------|
F:-66-4-9-8-4-6--66-4-66-1b-------------------------|
C:-------------------------44-2-6-222-6-4-2-1-------|
G:--------------------------------------------4~~---|
D:--------------------------------------------------|x1
Tap to rate this tab
 
# A B C D E F G H I J K L M N O P Q R S T U V W X Y Z