Guitaretab - guitar tabs
Song name
# A B C D E F G H I J K L M N O P Q R S T U V W X Y Z

Bayside - Paternal Reversal tab

Pleas someone help with this. this is a really rough draft. and its only rhythm guitar.
been no tab forever so hopefully this will get it going.


figure out strumming

Intro

e)----------------------------------------------------------------|
b)--------------3-------------------------------------------------|
g)--------------2------11----6-7----11------7--7----6-------------|
d)--7-----0-----0------11----6-7----11------7--7-or- 6------------|
a)--7-----0-----0-------9----4-5-----9------5--4----4-------------|
d)--7-----0-------------------------------------------------------|

verse

e)-------------------------------------------------------------------------|
b)-------------------------------------------------------------------------|
g)-------------------------------------------------------------------------|
d)---7----0----3----5-----2------2-2---------------------------------------|
a)---7----0----3----5-----2------2-2---------------------------------------|
d)---7----0----3----5-----2------2-2---------------------------------------|
PM***************************************

Chorus
[ Tab from: http://www.guitaretab.com/b/bayside/105185.html ]
e)-------------------------------------------------------------|
b)-------------------------------------------------------------|
g)---------------------------------5/7-------------------------|
d)---7--5-----4---3------7---5-----x-x--0---3---5--------------|
a)---7--5-----4---3------7---5-----3/5--0---3---5--------------|
d)---7--5-----4---3------7---5----------0---3---5--------------|


bridge
e)--------------------------------------------- --|--------------------|
b)---3-------------------------3p1------------- --|-------3------------|
g)---0----------------------------------6----- ---|-------0------------|
d)---x-or- (10)--------7-----3---------3------5----|---(3)--x----------|
a)---3---- (10)--------7-----3---------3-----------|---(3)--3----------|
d)-------- (10)--------7-----3---------3-----------|--  (3)------------|

pre chorus
e)-------------------------------------------------------------------|
b)-------------------------------------------------------------------|
g)-------------------------------------------------------------------|
d)--7--5--0--3---5---------------------------------------------------|
a)--7--5--0--3---5---------------------------------------------------|
d)--7--5--0--3---5---------------------------------------------------|


so that sounds fine when you play along with the song so someone should fix this up and 
it good.
Related for Paternal Reversal tab
×
Paternal Reversal