Song name
# A B C D E F G H I J K L M N O P Q R S T U V W X Y Z

Bayside - I Think Ill Be Ok tab

I think ill be ok tab from Bayside's new album "Shudder". Not everythings right and 
correct me.

/=Slide up
\=slide down
h=hammer on
p=pull-off
x=muted string
.=palm mute
~=hold note

Jack O’shea’s part is on the top (lead)
Intro
E--------------------------| (X3)
B--------------------------|
G--------------------------|
D-----4--------------------|
A---0---------5------7-----|
D-0-----0-3/5---5/7--------|

E---------------------------|
B---------------------------|
G---------------------------|
D---5-4h5p4---------4-------|
A-----------5---5—7---------|
D-0-----------7-------------|

E-------------------------|
B-------------------------|
G-------------------------|
D-----4-------------------|
A---0---------5-----7-----|
D-0-----0-3/5---5/7-------|

E------------------------------|
B------------------------------|
G------------------------------|
D---5-7-4---4h5p4--------------|
A---------7-------5------------|
D-0----------------------------|

E--------------|
B--------------|
G-7777777x7\---|
D-xxxxxxxxx\---
A-5555555x5\---|
D--------------|

Verse (im not so sure about this, help if you can)

E---------------------------------------------------------------------------|
B---------------76-4h6---------------76-7p6---------------76-4-7------------|
G-7777-7-76-4h6--------7777-7—76-6h7--------7777-7—76-4-7--------1010-10~---|
D-7777-7---------------7777-7---------------7777-7--- -----------1010-10~---|
A-5555-5---------------5555-5---------------5555-5---------------8888-8~----|
D---------------------------------------------------------------------------|
  ....   ..     ..     ....   ..     ..     ....   .. . . .. . . ....

Re-Intro
E-------------------------|
B-------------------------|
G-------------------------|
D-----4-------------------|
A---0---------5------7----|
D-0-----0-3/5---5/7-------|

E---------------------------|
B---------------------------|
G---------------------------|
D---5-4h5p4----------4------|
A-----------5---5—7---------|
D-0-----------7-------------|

E--------------------------|
B--------------------------|
G--------------------------|
D-----4--------------------|
A---0---------5------7-----|
D-0-----0-3/5---5/7--------|

E----------------------------|
B----------------------------|
G----------------------------|
D---5-7-4---4h5p4------------|
A---------7--------5---------|
D-0--------------------------|

Verse

E---------------------------------------------------------------------------|
B---------------76-4h6---------------76-7p6---------------76-4-7------------|
G-7777-7-76-4h6--------7777-7—76-6h7--------7777-7—76-4-7--------1010-10~---|
D-7777-7---------------7777-7---------------7777-7--- -----------1010-10~---|
A-5555-5---------------5555-5---------------5555-5---------------8888-8~----|
D---------------------------------------------------------------------------|
  ....   ..     ..     ....   ..     ..     ....   .. . . .. . . ....


Pre-Chorus (X2)
E--/10-9-7-5~-/10-9-7-5-3-2-0~------|
B-----------------------------------|
G-----------------------------------|
D-----------------------------------|
A-----------------------------------|
D-----------------------------------|


Chorus
E-------------------------------------------------------------------------|
B-------------------------------------------------------------------------|
G-9999-9-7777-7-9999-9-7777-9999-7777-9999/11/1212—9999\7777/9999/11/12---|
D-xxxx-x-xxxx-x-xxxx-x-xxxx-xxxx-xxxx-xxxxxxxxxxxx-xxxxxxxxxxxxxxxxxxxx---|
A-7777-7-5555-5-7777-7-5555-7777-5555-7777/99/1010—7777\5555/7777/99/10---|
D-------------------------------------------------------------------------|
  ....   ....   ....
Re-Intro
E--------------------------|
B--------------------------|
G--------------------------|
D-----4--------------------|
A---0---------5------7-----|
D-0-----0-3/5---5/7--------|

E-------------------------|
B-------------------------|
G-------------------------|
D---5-4h5p4---------4-----|
A-----------5---5—7-------|
D-0-----------7-----------|

E--------------------------|
B--------------------------|
G--------------------------|
D-----4--------------------|
A---0---------5------7-----|
D-0-----0-3/5---5/7--------|

E------------------------------|
B------------------------------|
G------------------------------|
D---5-7-4---4h5p4--------------|
A---------7-------5------------|
D-0----------------------------|

Verse

E---------------------------------------------------------------------------|
B---------------76-4h6---------------76-7p6---------------76-4-7------------|
G-7777-7-76-4h6--------7777-7—76-6h7--------7777-7—76-4-7--------1010-10~---|
D-7777-7---------------7777-7---------------7777-7--- -----------1010-10~---|
A-5555-5---------------5555-5---------------5555-5---------------8888-8~----|
D---------------------------------------------------------------------------|
  ....   ..     ..     ....   ..     ..     ....   .. . . .. . . ....

Pre-Chorus (X2)
E--/10-9-7-5~-/10-9-7-5-3-2-0~-------------|
B------------------------------------------|
G------------------------------------------|
D------------------------------------------|
A------------------------------------------|
D------------------------------------------|

Chorus
E-------------------------------------------------------------------------|
B-------------------------------------------------------------------------|
G-9999-9-7777-7-9999-9-7777-9999-7777-9999/11/1212—9999\7777/9999/11/12---|
D-xxxx-x-xxxx-x-xxxx-x-xxxx-xxxx-xxxx-xxxxxxxxxxxx-xxxxxxxxxxxxxxxxxxxx---|
A-7777-7-5555-5-7777-7-5555-7777-5555-7777/99/1010—7777\5555/7777/99/10---|
D-------------------------------------------------------------------------|
  ....   ....   ....

pre bridge (or whatever you wanna call it)
E------------------------------------------------|
B------------------------------------------------|
G------------------------------------------------|
D-55555-44444-55555-444444-55555-444444-5~-7~----|
A-55555-44444-55555-444444-55555-444444-5~-7~----|
D-55555-44444-55555-444444-55555-444444-5~-7~----|
   ...   ...   ...   ...    ...   ...

Bridge

E-//10~-7~-/10-9-7-5-3~--------------------/10~-7~-/10-9-7-5-3~---|
B-----------------------/7--\5-7/8/10/12~-------------------------|
G-----------------------------------------------------------------|
D-----------------------------------------------------------------|
A-----------------------------------------------------------------|
D-----------------------------------------------------------------|

E----------------------|
B-/7--\5-7/8/10/12~----|
G----------------------|
D----------------------|
A----------------------|
D----------------------|

Re-Intro (again) (X2)
E--------------------------|
B--------------------------|
G--------------------------|
D-----4--------------------|
A---0---------5------7-----|
D-0-----0-3/5---5/7--------|

Chorus
E-------------------------------------------------------------------------|
B-------------------------------------------------------------------------|
G-9999-9-7777-7-9999-9-7777-9999-7777-9999/11/1212—9999\7777/9999/11/12---|
D-xxxx-x-xxxx-x-xxxx-x-xxxx-xxxx-xxxx-xxxxxxxxxxxx-xxxxxxxxxxxxxxxxxxxx---|
A-7777-7-5555-5-7777-7-5555-7777-5555-7777/99/1010—7777\5555/7777/99/10---|
D-------------------------------------------------------------------------|
  ....   ....   ....

Outro (or intro again)
E--------------------------|
B--------------------------|
G--------------------------|
D-----4--------------------|
A---0---------5------7-----|
D-0-----0-3/5---5/7--------|

End on
E----------|
B----------|
G-7\\------|
D-x--------|
A-5\\------|
D----------|

Now anthony’s part (Rythm)

Intro
E----------------------------------------------------------------|
B----------------------------------------------------------------|
G------------------------------------------------7x7777x7--------|
D-0~---xxx-0000000000000000xxx0000000000000000---7x7777x7--------|
A-0~---xxx-0000000000000000xxx0000000000000000---5x5555x5--------|
D-0~---xxx-0000000000000000xxx0000000000000000-------------------|
          /\slow strums here/\/\/\/\/\/\/\/\/\
Verse

E-------------------------------------------------------------------|
B-------------------------------------------------------------------|
G-------------------------------------------------------------------|
D---0~--9—4---0~----5----7---0~----7---9----0~----7----4------------|
A---0~--9—4---0~----5----7---0~----7---9----0~----7----4------------|
D---0~--9—4---0~----5----7---0~----7---9----0~----7----4------------|


Re-Intro
E---------------------------------------------|
B---------------------------------------------|
G---------------------------------------------|
D-0000000000000000000000xxx0000000000000000---|
A-0000000000000000000000xxx0000000000000000---|
D-0000000000000000000000xxx0000000000000000---|
   /\slow strums here/\/\/\/\/\/\/\/\/\

Verse

E-------------------------------------------------------------------|
B-------------------------------------------------------------------|
G-------------------------------------------------------------------|
D---0~--9—4---0~----5----7---0~----7---9----0~----7----4------------|
A---0~--9—4---0~----5----7---0~----7---9----0~----7----4------------|
D---0~--9—4---0~----5----7---0~----7---9----0~----7----4------------|

Pre-chorus
E-----------------------------------------------------------------|
B-----------------------------------------------------------------|
G-----------------------------------------------------------------|
D---00000-555555-00000-777777-00000-55555-00000-7799--------------|
A---00000-555555-00000-777777-00000-55555-00000-7799--------------|
D---00000-555555-00000-777777-00000-55555-00000-7799--------------|

Chorus
E-----------------------------------------------------------------|
B-----------------------------------------------------------------|
G-----------------------------------------------------------------|
D-9999-5555-0000-55-77-9999-5555-0000-55-77-9999-5555-00000000~---|
A-9999-5555-0000-55-77-9999-5555-0000-55-77-9999-5555-00000000~---|
D-9999-5555-0000-55-77-9999-5555-0000-55-77-9999-5555-00000000~---|
  /\/\/\/\/\/\/\/\/slow strums!/\//\/\/\/\/\/\/\/\/\/\/\/\/\
Re-Intro
E------------------------------------------------------|
B------------------------------------------------------|
G------------------------------------------------------|
D-------------------00000000xxx0000000000000000--------|
A-------------------00000000xxx0000000000000000--------|
D-\\\\pickslide\\\\-00000000xxx0000000000000000--------|
                    /\slow strums here/\/\/\/\


Verse

E-------------------------------------------------------------------|
B-------------------------------------------------------------------|
G-------------------------------------------------------------------|
D---0~--9—4---0~----5----7---0~----7---9----0~----7----4------------|
A---0~--9—4---0~----5----7---0~----7---9----0~----7----4------------|
D---0~--9—4---0~----5----7---0~----7---9----0~----7----4------------|

Pre-chorus
E----------------------------------------------------------------|
B----------------------------------------------------------------|
G----------------------------------------------------------------|
D---00000-555555-00000-777777-00000-55555-00000-7799-------------|
A---00000-555555-00000-777777-00000-55555-00000-7799-------------|
D---00000-555555-00000-777777-00000-55555-00000-7799-------------|

Chorus
E-----------------------------------------------------------------|
B-----------------------------------------------------------------|
G-----------------------------------------------------------------|
D-9999-5555-0000-55-77-9999-5555-0000-55-77-9999-5555-00000000~---|
A-9999-5555-0000-55-77-9999-5555-0000-55-77-9999-5555-00000000~---|
D-9999-5555-0000-55-77-9999-5555-0000-55-77-9999-5555-00000000~---|
  /\/\/\/\/\/\/\/\/\/slow strums!/\//\/\/\/\/\/\/\/\/\/\/\/\/\

Bridge part 1 or pre bridge or whatever
E------------------------------------------------|
B------------------------------------------------|
G------------------------------------------------|
D-55555-44444-55555-444444-55555-444444-5~-7~----|
A-55555-44444-55555-444444-55555-444444-5~-7~----|
D-55555-44444-55555-444444-55555-444444-5~-7~----|
   ...   ...   ...   ...    ...   ...

Bridge (x2)
E------------------------------------------------|
B------------------------------------------------|
G------------------------------------------------|
D—0~----9~----5~----0~-----5~------7~------------|
A—0~----9~----5~----0~-----5~------7~------------|
D—0~----9~----5~----0~-----5~------7~------------|

Another re intro (this ones a little different)
E--------------------------|
B--------------------------|
G--------------------------|
D---0~----00----00---00----|
A---0~----00----00---00----|
D—--0~----00----00---00----|

Chorus
E-----------------------------------------------------------------|
B-----------------------------------------------------------------|
G-----------------------------------------------------------------|
D-9999-5555-0000-55-77-9999-5555-0000-55-77-9999-5555-00000000~---|
A-9999-5555-0000-55-77-9999-5555-0000-55-77-9999-5555-00000000~---|
D-9999-5555-0000-55-77-9999-5555-0000-55-77-9999-5555-00000000~---|
  /\/\/\/\/\/\/\/\/\/slow strums!/\//\/\/\/\/\/\/\/\/\/\/\/\/\

End on
E--------------|
B--------------|
G--------------|
D----7\\\\-----|
A----7\\\\\----|
D----7\\\\\----|
Tap to rate this tab
# A B C D E F G H I J K L M N O P Q R S T U V W X Y Z