Song name
# A B C D E F G H I J K L M N O P Q R S T U V W X Y Z

Bayside - Walking Wounded tab

tabbed by: Zero
e-mail: guitar_junkie_0912@yahoo.com


i realize the tuning may be different, say half a step down or in drop c, but this tab 
for the people who don't want to retune to play the song.


intro guitar 1
e|-------------------------------------|
b|-------------------------------------|
g|-------------------------------------|
d|-3-----------3------------3----------|
a|-------1-2-3--------3--------3-1-----|
e|---1-4----------1-------1---1--------|

e|------------------------------|
b|------------------------------|
g|------------------------------|
d|---33-66-5*-----22-33-55------|
a|-44----------33---------------|
e|------------------------------|

Intro guitar 2
e|--------------------------|
b|--------------------------|
g|-----------------5555-----|
d|-3----3----6666--5555-----|
a|-3----3----6666--3333-----|
e|-1----1----4444-----------|

pre verse
e|---11--------11------------------------------------|
b|---11---66---11---------66---66----66--------------|
g|--------55--------------55---55----55--------------|
d|---------------------------------------------------|
a|------3-----------1-3-4----------3-----------------|
e|-1---------1----4-----------4---------1-3-4--------|

verse guitar 1
e|--------------------------------------------------------|
b|--------------------------------------------------------|
g|----------------------------8\66--66--66----55-55-------|
d|-33--33--33-3--66--66--66---8\66--66--66-6--55-55--2~---|
a|-33--33--33-3--66--66--66---6\44--44--44-6--33-33--3~---|
e|-11--11--11-1--44--44--44----------------4---------0~---|


verse guitar 2
e|-1---4---1---4---1-4-1---4---1---4---1-4-1---------|
b|-1---1---1---1---1-1-1---1---1---1---1-1-1---------|
g|---------------------------------------------------|
d|---------------------------------------------------|
a|---------------------------------------------------|
e|---------------------------------------------------|


chorus guitar 1
e|------------------------------------------------------------------------|
b|------------------------------------------------------------------------|
g|-------------------66666666----------66666666-5555-10101010-------------|
d|-33333333-66666666-66666666-66666666-66666666-5555-10101010--8888-10----|
a|-33333333-66666666-44444444-66666666-44444444-3333--8-8-8-8--8888-10----|
e|-11111111-44444444----------44444444-------------------------6666--8----|

chorus guitar 2
e|-------------------------------------------------------------------------|
b|-------------------------------------------------------------------------|
g|------------------------------------------6666-6-5-3---5555-6-5-3--------|
d|-33333333---------------------------3-5-6------------6------------6------|
a|-33333333-----3-4-3-----------3-4-6-------4444-4-3-1---3333-4-3-1--------|
e|-11111111-4-6-------6-4-6-4-6------------------------4------------4------|

e|------------------------------------------|
b|------------------------------------------|
g|-66666666-5555-1010101010101010-1212------|
d|------------------------------------------|
a|-44444444-3333--8-8-8-8-8-8-8-8-1010------|
e|------------------------------------------|

repeat intro

verse guitar 1
e---------------------------------------------------|
b---------------------------------------------------|
g--------5555--------3-5-6-666------5-5-------------|
d-3-3333-5555-3333-6-3-5-6-666--6-6-5-5-5-555-6-3---|
a-3-3333-3333-3333-6-1-3-4-444--6-6-3-3-5-555-6-3---|
e-1-1111------1111-4------------4-4-----3-333-4-1---|
    .... .... ....         ...            ...

play it again but ending with this
e|-----------------------|
b|-----------------------|
g|-----------------------|
d|-2222222222222222------|
a|-3333333333333333------|
e|-0000000000000000------|
   ................

repeat chorus

bridge
e|--------------------------------------------------------------|
b|--------------------------------------------------------------|
g|-6-66-6-66-666---------------3-33-3-33-333--------------------|
d|-6-66-6-66-666-6-66-6-66-666-3-33-3-33-333--3-33-3-33-333-----|
a|-4-44-4-44-444-6-66-6-66-666-1-11-1-11-111--3-33-3-33-333-----|
e|---------------4-44-4-44-444----------------1-11-1-11-111-----|
     ..   .. ...   ..   .. ...   ..   .. ...    ..   .. ...

e|-----------------------------------------|
b|-----------------------------------------|
g|-6-66-6-66-666-5-55-5-55-555-8888--9-----|
d|-6-66-6-66-666-5-55-5-55-555-8888--10----|
a|-4-44-4-44-444-3-33-3-33-333-6666---7----|
e|-----------------------------------------|
     ..   .. ...   ..   .. ...

Solo guitar 1
e|--------8----9-8-11/13-11----------------------------------------------------------------|
b|----9-8---11--------------14-13-11-----------------8-9-8-------11p8----9p8---------------|
g|-10--------------------------------13-12-10------8-------8---8-----------------10-8-10---|
d|----------------------------------------------10-----------10-------10------10-----------|
a|-----------------------------------------------------------------------------------------|
e|-----------------------------------------------------------------------------------------|

e|--------------------------------8h11p8-------8h11p8-------8h11p8-11/13-------|
b|--888-6-8-9-8-9-11-9-11---11b13--------11b13--------11b13--------------------|
g|-----------------------------------------------------------------------------|
d|-----------------------------------------------------------------------------|
a|-----------------------------------------------------------------------------|
e|-----------------------------------------------------------------------------|

the tapping has some sorta rhythm like this, figure it out yourself
e|------------------------------------------------------------------------|
b|--13t9p6h9p6h9p6-11t9p6h9p6h9p6-13t9p6-14t9p6-13tp9p6-11t9p6-13t9p6-----|
g|------------------------------------------------------------------------|
d|------------------------------------------------------------------------|
a|------------------------------------------------------------------------|
e|------------------------------------------------------------------------|

e|----------------------------------------------------------------------------|
b|----------------------------------------------------------------------------|
g|--t12p8p5h8p5h8p5-t10p8p5h8p5h8p5-t12p8p5-t13p8p5-t12p8p5-t10p8p5-t12p8p5---|
d|----------------------------------------------------------------------------|
a|----------------------------------------------------------------------------|
e|----------------------------------------------------------------------------|

e|----------------------------------------------------------------------------------------|
b|-9p8-----------9p8-9p8------9p8--------13p11-------------13p11-13p11-------13p11--------|
g|-----10p8-10p8---------10p8-----10p8---------13p12-13p12-------------13p12-------13p12--|
d|----------------------------------------------------------------------------------------|
a|----------------------------------------------------------------------------------------|
e|----------------------------------------------------------------------------------------|

e|------------------------------------------------13-----15b16(15)-13--13----|
b|-999-111-131313-111-131313-141414-131313-141414----14----------------15b---|
g|---------------------------------------------------------------------------|
d|---------------------------------------------------------------------------|
a|---------------------------------------------------------------------------|
e|---------------------------------------------------------------------------|

solo guitar 2
e|-----------------------------------------------------------|
b|-----------------------------------------------------------|
g|--------------------66666666-55555555-1010101010101010-----|
d|-33333333-66666666--66666666-55555555-1010101010101010-----| x2
a|-33333333-66666666--44444444-33333333--7-7-7-7-7-7-7-7-----|
e|-11111111-44444444-----------------------------------------|

piano thing that i didn't wanna transpose

after the piano...

e|-------------------|---------------|
b|-------------------|---------------|
g|-------------------|---------------|
d|-2222222222222222--|------5--------|
a|-3333333333333333--|------5--------|
e|-0000000000000000--|------3--------|
"scientists they..."

new chorus guitar 1
e|------------------------------------------------------------------|
b|------------------------------------------------------------------|
g|-----------88888888----------88888888-7777-12121212---------------|
d|--88888888-88888888-88888888-88888888-7777-12121212--10101010-----|
a|--88888888-66666666-88888888-66666666-5555-10101010--10101010-----|
e|--66666666----------66666666--------------------------8-8-8-8-----|

chorus guitar 2 is coming soon, just take everything up a step

pre new new chorus
e|--------------------------|
b|--------------------------|
g|--------------------------|
d|-4444-6666-7--------------|
a|-5555-7777-7--------------|
e|-2222-4444-5--------------|

new new chorus guitar 1
e|----------------------------------------------------------------------------------------|
b|----------------------------------------------------------------------------------------|
g|-------------------10101010----------10101010-9999-14141414-----------------------------|
d|-77777777-10101010-10101010-10101010-10101010-9999-14141414--12121212-14141414-12-10-7--|
a|-77777777-10101010-88888888-10101010-88888888-7777-12121212--12121212-14141414-12-10-7--|
e|-55555555-88888888----------88888888-------------------------10101010-12121212-10--8-5--|

guitar 2 coming soon, again
the end, not all correct, but close.
Tap to rate this tab
# A B C D E F G H I J K L M N O P Q R S T U V W X Y Z