Song name
# A B C D E F G H I J K L M N O P Q R S T U V W X Y Z

Bayside - Guardrail tab

-------------------------------------------------------------------------------
			     Guardrail - Bayside
-------------------------------------------------------------------------------
Tabbed by: adobohobo88
Email: adobohobo88@hotmail.com

Tuning: Drop D

e|-----------------------------------------------------------|
B|---------------------------------------1-3--------------1--|
G|-----5---2-----------5-2--2--3-----2-3-----2--------2-3----|
D|---3---3-------3---3------2--3---3----------------3--------|
A|-5---------------0--------0--1------------------1----------|
D|-----------------------------------------------------------|

e|-----------------------------------------------------------|
B|--------------------------------------1-3------------------|
G|-----5---2-----------5-2--2--3----2-3-----2b---------------|
D|---3---3-------3---3------2--3---3-------------------------|
A|-5---------------0--------0--1-----------------------------|
D|-----------------------------------------------------------|

| /  slide up
| \  slide down
| h  hammer-on
| p  pull-off
| ~  vibrato
| +  harmonic
| x  Mute note
| b  bend
Tap to rate this tab
# A B C D E F G H I J K L M N O P Q R S T U V W X Y Z