Song name
# A B C D E F G H I J K L M N O P Q R S T U V W X Y Z

Bayside - Montauk tab

-------------------------------------------------------------------------------
			    MONTAUK -- BAYSIDE
-------------------------------------------------------------------------------
Tabbed by: htv448
Email: shudder448@hotmail.com

Tuning: Standard

K guys, this is my first tab on ultimate guitar.
I submitted this because all the other tabs for
this solo are HORRIBLE. Trust me, this IS the 
right way to play it! Enjoy.

GUITAR I (PALM MUTED)

e|-------------------------------------------------------------------------|
B|--12----12----12----12----12----12-10-----10-----10-----10-----10--------|
G|----11----11----11----11----11-------11-----11-----11-----11-----11------|
D|------9-----9-----9-----9-----9--------12-----12-----12-----12-----12----|
A|-------------------------------------------------------------------------|
E|-------------------------------------------------------------------------|

e|-------------------------------------------------------------------------|
B|--10\8----8----8----8----8----8\7---7---7---7---7---7/10-----------------|
G|------9----9----9----9----9------9---8---8---8---8-----------------------|
D|-------10---10---10---10---10-----8---9---9---9---9------------------x2--|
A|-------------------------------------------------------------------------|
E|-------------------------------------------------------------------------|

GUITAR II
    v Start Palm Mute
e|-------------------------------------------------------------------------|
B|-------------------------------------7-----8-7---7-----------------------|
G|--------6-7---6----------------6-7-9---9-7-----9---9-7-6-7-9-7-6---------|
D|--9-7-9-----9---9--7-9-7-----------------------------------------9-7-----|
A|-------------------------10-9--------------------------------------------|
E|-------------------------------------------------------------------------|
                      End Palm Mute v          . . .
e|-------------------------------------------------------------------------|
B|-------------------------------------------------------------------------|
G|-------------------------7-------------------3------4p3--3h4p3-4/6/7-----|
D|----7-9-7----10-9-7-9-10---10-9-7-9--5h7p5\4---5-4-----5-----------------|
A|-10-------10-------------------------------------------------------------|
E|-------------------------------------------------------------------------|
                                               
e|---------------------------------10----10-12b14-12b14-12br-10-12b14r----|
B|-----------------------12--10h12----12------------------------------1212|
G|-6h7p6-------------4/11-------------------------------------------------|
D|-------7\9-9~~----------------------------------------------------------|
A|------------------------------------------------------------------------|
E|------------------------------------------------------------------------|

e|-------------------------------------------------------------------------|
B|-------------------------------------7/----------------------------------|
G|-9b11\7-------9b11\7-----------6---6-------------------------------------|
D|--------9-7-9--------9-7-9-----------------------------------------------|
A|---------------------------8-9---9---------------------------------------|
E|-------------------------------------------------------------------------|

e|---------------------------------------------10--12--14--12--14--12--10--|
B|---------12--14--15--14--15--14--12\10-101010--10--10--10--10--10--10----|
G|-11-1111---11--11--11--11--11--11----------------------------------------|
D|-------------------------------------------------------------------------|
A|-------------------------------------------------------------------------|
E|-------------------------------------------------------------------------

e|-------------------------------------------------------------------------|
B|-------------------------------------------------------------------------|
G|------------10--12-10-12/14-12-14-14/15-14-15-15/19-17-15-14-------------|
D|--------12---------------------------------------------------16-15-15~~~-|
A|-121212------------------------------------------------------------------|
E|-------------------------------------------------------------------------|

e|-14---------14---------14-------14-------14~~~~~-------------------------|
B|----17b19------17b19------17b19----17b19-17b19~~-------------------------|
G|-------------------------------------------------------------------------|
D|-------------------------------------------------------------------------|
A|-------------------------------------------------------------------------|
E|-------------------------------------------------------------------------|

. = Palm Mute
/ = Slide Up
\ = Slide Down
h = Hammeron
p = Pulloff
~ = Let Ring
xby = Bend note x to match pitch of note y
br = Bend Release

Im sure these are the right notes,
phrasing might be quirky at some parts,
its my very first tab. Enjoy.

Corrections/Comments
email Matt (shudder448@hotmail.com)
Tap to rate this tab
 
# A B C D E F G H I J K L M N O P Q R S T U V W X Y Z