Song name
# A B C D E F G H I J K L M N O P Q R S T U V W X Y Z

Bayside - What And What Not tab

pretty good song off shudder. i couldnt figure out the chorus for jacks part
top is anthony raneri (rythm) and bottom is jack o'shea (lead)
and i just wrote the chords, i didnt feel like writing out the whole strumming pattern. 
on tricky parts.

Intro: (x4)
D---------------------------|
A---------------------------|
F---------------------6-----|
C--6-----9-----4------6-----|
G--6-----9-----4------4-----|
D--4-----7-----2------------|

D-----------------------------------------------9-8~---|
A---------------------------------------12-11-9-9-9~---|
F---/8--11-9-8---------------/8--11-9-8----------------|
C--------------/13-11-9-8------------------------------|
G-------------------------11---------------------------|
D------------------------------------------------------|

D------------------------------------------------|
A------------------------------------------------|
F---/8--11-9-8-----------------------------------|
C--------------/13-11-9-8---------8--9--11~------|
G-------------------------11-9-11----------------|
D------------------------------------------------|

Verse:(x2, both times palm muted, but second time dif. pattern and no notes at end)
d--------------------------------|
A--------------------------------|
F-------9------------------------|
C--6----9-----9----4-------------|
G--6----7-----9----4-----6-4-----|
D--4----------7----2---------7-6-|

start this part when rythm starts second cycle
d---11----14----11------9-----11---14---11------9---------------|
A-----12----12----12-\-9--9-7---12---12---12-\-9--9-7/11-12~----|
F---------------------------------------------------------------|
C---------------------------------------------------------------|
G---------------------------------------------------------------|
D---------------------------------------------------------------|

transition:
d------------------------|
A------------------------|
F------------xxxxx(9)----|
C-66x6xx6xx--xxxxx(9)----|
G-66x6xx6xx--xxxxx(7)----|
D-44x4xx4xx--------------|

Prechorus:(x2)
D---------------------------|
A---------------------------|
F---------------------6-----|
C--6-----9-----4------6-----|
G--6-----9-----4------4-----|
D--4-----7-----2------------|

d-----------------------------------------------------|
A--12-9--12-11h12p11-------------12-9-11-11h12p11-----|
F--11-11-11-11-------11-9-11/13--11-1111-11-----------|
C-----------------------------------------------------|
G-----------------------------------------------------|
D-----------------------------------------------------|

Chorus: (i dont know jack's part for this)
d--------------------(x2)----------|
A----------------------------------|
F-------8----9---11----------------|
C---9---8----9---11--------6---9---|
G---9---6----7---9---------6---9---|
D---7----------------------4---7---|

Intro

verse

transition

prechorus

chorus

first part of bridge:
d-------------------------------|
A-------------------------------|
F--------------6-------9x-9x----|
C---9----6-----6-------9x-9x----|
G---9----6-----4-------7x-7x----|
D---7----4----------------------|

d-------------------------------------------------|
A-----------------------------------------8--7----|
F---6p4--3h4---6p4--3h4---9p7--8h9---9p7--9b-8b---|
C------6----4-----6----4-----9----9-----9---------|
G-------------------------------------------------|
D-------------------------------------------------|

second part:
d----0-----0---------------(x2------|----------|(x3)
A----0-----0------------------------|----------|
F----6-----9--------------------6--9|----------|
C----6-----9---6---9---4--------6--9|--6--9--4-|
G--4-4---7-7---6---9---4--------4--7|--6--9--4-|
D--------------4---7---2------------|--4--7--2-|


D---------------------------------/\---------(x2)---------|
A----------------------------------s----------------------|
F--same thing-13-15-16---13-15-9---a-13-15-16-----13-119--|
C-as-up-there-xx-xx-xx---xx-xx-x---m-xx-xx-xx-----xx-x-x--|
G-------------11-13-14---11-13-7---e-11-13-14-----11-9-7--|
D---------------------------------/\----------------------|

last part: (im not sure about this part)
d-11--------------------------------------------------|
A---12---12-11h12p11-12-9-11-12---9h11p9-11h12p11-----|
F-----13----11-------11-1111-11--11------11-----------|
C-----------------------------------------------------|
G-----------------------------------------------------|
D-----------------------------------------------------|

chorus
Tap to rate this tab
# A B C D E F G H I J K L M N O P Q R S T U V W X Y Z