Song name
# A B C D E F G H I J K L M N O P Q R S T U V W X Y Z

Bayside - The Ghost Of St Valentine tab

Help us improve GuitareTab! Take a short survey!
Artist: Bayside
Song: The Ghost of St. Valentine
Album: Shudder
Tuning: Whole Step Down(DGCFAD)

Guitar 1: Anthony Raneri

Intro:
e |--------------------------------------|x2
B |--------------------------------------|
G |--66666666----------2222222222222222--|
D |--66666666-22222222-2222222222222222--|
A |--44444444-22222222-0000000000000000--|
E |-----------00000000-------------------|

Guitar 2: Jack O'Shea

e |---------------------------------------------|
B |---------------------------------------------|
G |--6--9--8--6--------------------6-8-9-8-6----|
D |-------------9--6-4----------6-9----------9--|
A |-------------------7-4-7--7-9----------------|
E |---------------------------------------------|

e |-------------------------------------|
B |-------------------------------------|
G |--6--9--8--6-------------------------|
D |-------------9--6-4-------6-4--------|
A |-------------------7-4-7-----7-4-x7~-|
E |-------------------------------------|

Guitar 1:

Verse:
e |--------------------------|x1
B |------------------5~--x5--|
G |------6~--2~--4~--4~--x4--|
D |--2~--6~--2~--4~--2~--x2--|
A |--2~--4~--0~--2~----------|
E |--0~----------------------|
  Oh, pain, I'm doing bad....

Palm Mute...
e |---------------------------|x1
B |---------------------5x16--|
G |--------6x16-2x8-4x8-4-----|
D |--2x16--6----2---4---2-----|
A |--2-----4----0---2---------|
E |--0------------------------|
  It's getting old....

Pre Chorus:
e |---------------------------------------------------------|x1
B |---------------------------------------------------------|
G |--2222-4444-5555-6666-2222-2222-1111xx1111-xx1111xx1111--|
D |--2222-4444-5555-6666-2222-2222-1111xx1111-xx1111xx1111--|
A |--0000-2222-3333-4444-0000-0000-9-9-xx9-9--xx9-9-xx9-9---|
E |---------------------------------------------------------|
  I'd rather face the gallows...

Chorus:                                            The second time: 
e |-------------------------------------------|x2  |------|x1
B |-----------------5555----------------5555--|    |5555--|
G |-------2222-4444-4444-2222-6666-4444-4444--|    |4444--|
D |--2222-2222-4444-2222-2222-6666-4444-2222--|    |2222--|
A |--2222-0000-2222------0000-4444-2222-------|    |------|
E |--0000-------------------------------------|    |------|

Verse: x1
Pre CHorus: x1
Chorus: x1

Bridge:
I kinda mixed the two guitar parts into one for this part.
e |-----------------------------------------------------|x1
B |--55-5-5-5-55-44-4-4-4-44-99-9-9-9-99-------10-9-7---|
G |--66-6-6-6-66-55-5-5-5-55-99-9-9-9-99------9------9--|
D |------------------------------------------9----------|
A |--44-4-4-4-44-33-3-3-3-33-77-7-7-7-77-9/11-----------|
E |-----------------------------------------------------|
  
                                  the second time play this after.
e |--------------------------|x2  |-------|
B |--------------------------|    |-------|
G |--6x16-5x16-9x16-8x8------|    |-------|
D |--6----5----9----6---7x8--|    |--9x8--|
A |--4----3----7----6---7----|    |--9----|
E |---------------------5----|    |--7----|
  It's not right now to lose control...

Pre Chorus: x1
Chorus: x1 The same chords but the timing changes slightly you'll work it out.

thanks.
Related for The Ghost Of St Valentine tab