Song name
# A B C D E F G H I J K L M N O P Q R S T U V W X Y Z

Bayside - They Looked Like Strong Hands Acoustic tab

Hey everybody. This is my first posted tab so let me know what you think. I have had
finding good Bayside acoustic tabs, especially for this one, so I decided to tab it myself.
am 99% sure it is flawless, and it is based off of Anthony playing it live in this 
Please feel free to email me if you have any questions.
http://www.youtube.com/watch?v=-ac2-bwtEzc


-------------------------------------------------------------------------------
		They Looked Like Strong Hands - Bayside
-------------------------------------------------------------------------------
Tabbed by: Aaron Braly
Email: aaronbraly@yahoo.com

Tuning: DGCFAd

Intro:
    v v v v v v v v v v v v     v  v  v  v  v  v  v  v  v  v  v  v  v
d|--x-x-x-x-x-x-x-x-x-x-x-x--/--x--x--x--x--x--x--x--x--x--x--x--x--0-|
A|--5-5-5-5-5-5-5-5-5-5-5-5--/--x--x--x--x--x--x--x--x--x--x--x--x--0-|
F|--6-6-6-6-6-6-6-6-6-6-6-6--/--13-13-13-13-13-13-13-13-13-13^14-13-0-|
C|--6-6-6-6-6-6-6-6-6-6-6-6--/--x--x--x--x--x--x--x--x--x--x--x--x--0-|
G|--4-4-4-4-4-4-4-4-4-4-4-4--/--10-10-10-10-10-10-10-10-10-10-10-10-0-|
D|--x-x-x-x-x-x-x-x-x-x-x-x--/--0--0--0--0--0--0--0--0--0--0--0--0--0-|

                                                        This isn't who
    v v v v v v v v v v v v     v  v  v  v  v  v  v  v  v  v  v  v
d|--x-x-x-x-x-x-x-x-x-x-x-x--/--x--x--x--x--x--x--x--x--x--x--x--x---|
A|--5-5-5-5-5-5-5-5-5-5-5-5--/--x--x--x--x--x--x--x--x--x--x--x--x---|
F|--6-6-6-6-6-6-6-6-6-6-6-6--/--13-13-13-13-13-13-13-13-13-13-13-13--|
C|--6-6-6-6-6-6-6-6-6-6-6-6--/--x--x--x--x--x--x--x--x--x--x--x--x---|
G|--4-4-4-4-4-4-4-4-4-4-4-4--/--10-10-10-10-10-10-10-10-10-10-10-10--|
D|--x-x-x-x-x-x-x-x-x-x-x-x--/--0--0--0--0--0--0--0--0--0--0--0--0---|


Verse:
    I  am          from confidence to self doubt in 60
    v v v v v v v v v v v v  v v v v v v v v v v v v
d|--x-x-x-x-x-x-x-x-x-x-x-x--x-x-x-x-x-x-x-x-x-x-x-x-|
A|--5-5-5-5-5-5-5-5-5-5-5-5--x-x-x-x-x-x-x-x-x-x-x-x-|
F|--6-6-6-6-6-6-6-6-6-6-6-6--1-1-1-1-1-1-1-1-1-1-1-1-|
C|--6-6-6-6-6-6-6-6-6-6-6-6--2-2-2-2-2-2-2-2-2-2-2-2-|
G|--4-4-4-4-4-4-4-4-4-4-4-4--2-2-2-2-2-2-2-2-2-2-2-2-|
D|--x-x-x-x-x-x-x-x-x-x-x-x--0-0-0-0-0-0-0-0-0-0-0-0-|

    seconds. Storming stages and stereos         from here to there,
    v  v  v  v  v  v     v  v  v  v  v  v  v  v  v  v  v  v  v  v  v  v  v  v
d|--x--x--x--x--x--x--/--x--x--x--x--x--x--x--x--x--x--x--x--x--x--x--x--x--x-|
A|--x--x--x--x--x--x--/--x--x--x--x--x--x--x--x--x--x--x--x--x--x--x--x--x--x-|
F|--x--x--x--x--x--x--/--x--x--x--x--x--x--9--9--9--9--9--9--9--9--9--9--9--9-|
C|--4--4--4--4--4--4--/--7--7--7--7--7--7--9--9--9--9--9--9--9--9--9--9--9--9-|
G|--4--4--4--4--4--4--/--7--7--7--7--7--7--7--7--7--7--7--7--7--7--7--7--7--7-|
D|--2--2--2--2--2--2--/--5--5--5--5--5--5--x--x--x--x--x--x--x--x--x--x--x--x-|

    trying to prove that I belong.          Trying to
    v v v v v v v v v v v v  v v v v v v v v v v v v
d|--x-x-x-x-x-x-x-x-x-x-x-x--x-x-x-x-x-x-x-x-x-x-x-x-|
A|--5-5-5-5-5-5-5-5-5-5-5-5--x-x-x-x-x-x-x-x-x-x-x-x-|
F|--6-6-6-6-6-6-6-6-6-6-6-6--1-1-1-1-1-1-1-1-1-1-1-1-|
C|--6-6-6-6-6-6-6-6-6-6-6-6--2-2-2-2-2-2-2-2-2-2-2-2-|
G|--4-4-4-4-4-4-4-4-4-4-4-4--2-2-2-2-2-2-2-2-2-2-2-2-|
D|--x-x-x-x-x-x-x-x-x-x-x-x--0-0-0-0-0-0-0-0-0-0-0-0-|

      win          approval   from people that I don't know.
    v  v  v  v  v  v     v  v  v  v  v  v  v  v  v  v  v  v  v  v  v  v  ^  ^
d|--x--x--x--x--x--x--/--x--x--x--x--x--x--x--x--x--x--x--x--x--x--x--x--x--x-|
A|--x--x--x--x--x--x--/--x--x--x--x--x--x--x--x--x--x--x--x--x--x--x--x--x--x-|
F|--x--x--x--x--x--x--/--6--6--6--6--6--6--9--9--9--9--9--9--9--9--9--9--9--9-|
C|--4--4--4--4--4--4--/--7--7--7--7--7--7--9--9--9--9--9--9--9--9--9--9--9--9-|
G|--4--4--4--4--4--4--/--7--7--7--7--7--7--7--7--7--7--7--7--7--7--7--7--7--7-|
D|--2--2--2--2--2--2--/--5--5--5--5--5--5--x--x--x--x--x--x--x--x--x--x--x--x-|


Chorus:

   And I         looked so  strong when the weight of all the
   v v v v v v v v v v v v v v v v v v v v v v v v v v
d|-x-x-x-x-x-x-x-x-x-x-x-x-x-x-x-x-x-x-x-0-x-x-x-x-x-x-|
A|-x-x-x-x-x-x-x-x-x-x-x-x-x-5-5-5-5-5-5-0-x-x-x-x-x-x-|
F|-x-2-2-2-2-2-2-2-2-2-2-2-2-6-6-6-6-6-6-0-x-x-x-x-x-x-|
C|-0-2-2-2-2-2-2-2-2-2-2-2-2-6-6-6-6-6-6-0-6-6-6-6-6-6-|
G|-0-0-0-0-0-0-0-3-3-3-3-3-3-4-4-4-4-4-4-0-7-7-7-7-7-7-|
D|-0-x-x-x-x-x-x-x-x-x-x-x-x-x-x-x-x-x-x-0-4-4-4-4-4-4-|

   world don't take   its    toll.
   v v v v v v   v v v v v v v v ^ ^ v ^ ^ ^ v ^ ^ ^ v ^ ^ v
d|-x-x-x-x-x-x-/-x-x-x-x-x-x-x-x-x-x-x-x-x-x-x-x-x-x-x-x-x-x-|
A|-x-x-x-x-x-x-/-x-x-x-x-x-x-x-x-x-x-x-x-x-x-x-x-x-x-x-x-x-x-|
F|-x-x-x-x-x-x-/-x-x-x-x-x-x-9-9-9-9-9-9-9-9-9-9-9-9-9-9-9-x-|
C|-7-7-7-7-7-7-/-9-9-9-9-9-9-9-9-9-9-9-9-9-9-9-9-9-9-9-9-9-0-|
G|-7-7-7-7-7-7-/-9-9-9-9-9-9-7-7-7-7-7-7-7-7-7-7-7-7-7-7-7-0-|
D|-5-5-5-5-5-5-/-7-7-7-7-7-7-x-x-x-x-x-x-x-x-x-x-x-x-x-x-x-0-|

  And I'd choose    my side if     I be-
   v v v v v v  v  vv v v v v v v v v v
d|-x-x-x-x-x-x--------x-x-x-x-x-x-x-x-0-|
A|-x-x-x-x-x-x--------x-x-x-5-5-5-5-5-0-|
F|-2-2-2-2-2-2--------4-4-x-6-6-6-6-6-0-|
C|-2-2-2-2-2-2------0-0-0-0-6-6-6-6-6-0-|
G|-0-0-0-0-0-0-----2--2-2-0-4-4-4-4-4-0-|
D|-x-x-x-x-x-x-1/3----3-3-0-x-x-x-x-x-0-|

-lieved in what was right, but I'm all wrong.
   v v v v v v v v v v v v v v v v v v v v
d|-x-x-x-x-x-x-x-x-x-x-x-x-/-x-x-x-x-x-x-x-|
A|-x-x-x-x-x-x-x-x-x-x-x-x-/-x-x-x-x-x-x-x-|
F|-x-x-x-x-x-x-x-x-x-x-x-x-/-x-x-x-x-x-x-9-|
C|-6-6-6-6-6-6-7-7-7-7-7-7-/-9-9-9-9-9-9-9-|
G|-7-7-7-7-7-7-7-7-7-7-7-7-/-9-9-9-9-9-9-7-|
D|-4-4-4-4-4-4-5-5-5-5-5-5-/-7-7-7-7-7-7-x-|

Verse 2:
I'm not larger than life, I'm not taller than trees.
Do I mean what I say or is it just this disease where I never go home?
Never telling the truth, how this life eats away
or admitting I'm fake.
And I'm questioning whether this whole thing was worth it to die poor and all alone?

Chorus(repeat)


Bridge:

d|--------------------------------------------------------|
A|--------------------------------------------------------|
F|--------------------------------------------------------|
C|-----------------2-1-----------2-2-2-----/-6-6-6-6------| x2
G|-4-4-4-7-7-7-4-0-----4-2-0-0-0-------2-2----------------|
D|--------------------------------------------------------|
   * * * * * * * * * * * * * * *       * *


d|--------------------------------------------------------|
A|--------------------------------------------------------|
F|--------------------------------------------------------|
C|-----------------2-1-----------2-2-2-----/-6-6-6-6------|
G|-4-4-4-7-7-7-4-0-----4-2-0-0-0-------2-2----------------|
D|--------------------------------------------------------|
   * * *

                          v v ^ v  v v v
d|------------------------x-x-x-x--x-x-x-----------|
A|------------------------x-x-x-x--x-x-x-----------|
F|------------------------2-2-2-2--4-4-4-----------|
C|---------------2p1------2-2-2-2--4-4-4-----------|
G|-0-4---7~~-4p0----4p2---0-0-0-0--2-2-2-----------|
D|-----0------------------x-x-x-x--x-x-x-----------|
       *                        *

 Just don't tell me this doesn't mean the world,  'cause my ears
A|--------------------------------------------------------------|
F|--------------------9---8--4----6--4-6-4-------------9--------|
C|------2----6----2---9---8--4----6--4-6-4--2---6--9---9-----2--|
G|------2----6----2---7---6--2----4--2-4-2--2---6--9---7-----2--|
D|-----------4----------------------------------4--7------------|

  would bleed  and my heart would hit the floor
d|-------------------------------------------------|
A|-------------------------------------------------|
F|-666-------------9---8-----4----6---464----------|
C|-666----2--------9---8-----4----6---464---2------|
G|-444----2--------7---6-----2----4---242---2------|
D|-------------------------------------------------|


Repeat Chorus.

| /  slide up
| \  slide down
| h  hammer-on
| p  pull-off
| ~  vibrato
| +  harmonic
| x  Mute note
| *  Palm Mute
===============================================================================
Tap to rate this tab
 
# A B C D E F G H I J K L M N O P Q R S T U V W X Y Z