Song name
# A B C D E F G H I J K L M N O P Q R S T U V W X Y Z

Bayside - I And I tab

-------------------------------------------------------------------------------
			     I AND I SOLO- BAYSIDE
-------------------------------------------------------------------------------
Tabbed by:c0m2011

Tuning:Standard


TREMOLO PICK EVERYTHING AND LOTS OF WAH.

e|-------------------------------------------------------------------8-------|
B|------------------------------------11--10--8----------8--10--11-----------|
G|----------------10-----------12------------------10------------------------|
D|---12----10------------12--------------------------------------------------|
A|---------------------------------------------------------------------------|
E|---------------------------------------------------------------------------|

That's all it is. It repeats throughout the entire song after the solo's over without wah.

The other I and I tabs have the rhythm down fine so I'm just going to post this because 
know how much everyone wants it.
Tap to rate this tab
# A B C D E F G H I J K L M N O P Q R S T U V W X Y Z