Song name
# A B C D E F G H I J K L M N O P Q R S T U V W X Y Z

Bayside - The Ghost Of Saint Valentine tab

Bayside - The Ghost of Saint Valentine
SHUDDER
Tuning: Full Step Down
Tabbed by Paolo Amador

My favorite song on Shudder hands down. I learned this song through
youtube videos of them playing it acoustic so some of the lead guitar
might be different than the album.

The rhythm is not included.

Intro:
1st guitar
d|-----------------------------|
A|-----------------------------|
F|-6-----------------------2---|
C|-6-------2---------------2---|
G|-4-------2---------------0---|
D|---------0-------------------|

2nd guitar
d|-----------------------------|
A|-----------------------------|
F|--/9-8-----------------------|
C|-------9h11-9----------------|
G|--------------9/11\9-7p6h7---|
D|-----------------------------|

d|-----------------------------|
A|-----------------------------|
F|-----------------------------|
C|--2--------------------------|
G|--2--------------------------|
D|--0--------------------------|

d|-----------------------------|
A|-----------------------------|
F|----------6h8-9-8h6--6-------|
C|------6h9----------9---------|
G|--7h9------------------------|
D|-----------------------------|

d|-----------------------------|
A|-----------------------------|
F|-6-----------------------2---|
C|-6-------2---------------2---|
G|-4-------2---------------0---|
D|---------0-------------------|

d|-----------------------------|
A|-----------------------------|
F|--/9-8-----------------------|
C|-------9h11-9----------------|
G|--------------9/11\9-7p6h7---|
D|-----------------------------|


d|-----------------------------|
A|-----------------------------|
F|-2-----------4---------------|
C|-2-----------4---------------|
G|-0-----------2---------------|
D|-----------------------------|


d|-----------------------------|
A|-----------------------------|
F|-----------------------------|
C|-----------------------------|
G|-9/11\9-7p6--7---------------|
D|-----------------------------|

______________________________________________________

Verse 1:
Oh pain...
d|-----------------------------|
A|-------5---------------------|
F|-1-----6-----2---4----1------|
C|-2-----6-----2---4----2------|
G|-2-----4-----0---2----2------|
D|-0--------------------0------|


d|-0-0---0------0--0----0-0----|
A|-4p5---2-----10--0----4p5----|
F|-----------------------------|
C|-----------------------------|
G|-----------------------------|
D|-----------------------------|

d|-----------------------------|
A|-----------------------------|
F|---------6-------------------|
C|-2-------6-------------------|
G|-2-------4-------------------|
D|-0---------------------------|

d|-0-0---0-0----0---0----------|
A|-4p5---4-2-0h2-0h2-2---------|
F|-----------------------------|
C|-----------------------------|
G|-----------------------------|
D|-----------------------------|

d|-----------------------------|
A|-----------------------------|
F|-2----4----------------------|
C|-2----4---2------------------|
G|-0----2---2------------------|
D|----------0------------------|

d|-0--0-0-0-0-0----------------|
A|-10-9-7-0-4p5----------------|
F|-----------------------------|
C|-----------------------------|
G|-----------------------------|
D|-----------------------------|

______________________________________________________

Pre-Chorus:
I'd rather face the gallows...
d|-----------------------------|
A|-----------------------------|
F|-2--4--5--6--2--4------------|
C|-2--4--6--6--2--4------------|
G|-0--2--3--4--0--2------------|
D|-----------------------------|

d|-----------------------------|
A|-----------------------------|
F|-2--4--5--6--9--11-----------|
C|-2--4--6--6--x--x------------|
G|-0--2--3--4--7--9------------|
D|-----------------------------|

______________________________________________________

Chorus:
There is no love...
d|-----------------------------|
A|-----------------------------|
F|------2------4------9--------|
C|-2----2------4------9--------|
G|-2----0------2------7--------|
D|-0---------------------------|


d|------------------------------|
A|------------------------------|
F|-9p8---9p8---9p8--------------|
C|-----9-----9-----9--9h11p9--9-|
G|--------------------------11--|
D|------------------------------|

d|-----------------------------|
A|-----------------------------|
F|-2----6----4-------9---------|
C|-2----6----4-------9---------|
G|-0----4----2-------7---------|
D|-----------------------------|


d|----------------------------------|
A|-9-7---9-7------------------------|
F|-----9-----9-/11---9-9/11/13\11-9-|
C|-----------------9----------------|
G|----------------------------------|
D|----------------------------------|

d|-----------------------------|
A|-----------------------------|
F|------2------4------9--------|
C|-2----2------4------9--------|
G|-2----0------2------7--------|
D|-0---------------------------|

d|-----------------------------|
A|-----------------------------|
F|-9p8---9p8---9p8-------------|
C|-----9-----9-----9--9h11p9---|
G|-----------------------------|
D|-----------------------------|

d|-----------------------------------|
A|-----------------------------------|
F|------2---------6-------4--------9-|
C|------2---------6-------4--------9-|
G|------0---------4-------2--------7-|
D|-----------------------------------|

d|-----------------------------------|
A|----------12-10-9------------------|
F|-9-11-13----------11h13p11-9-11--9-|
C|-------------------------------9-x-|
G|---------------------------------7-|
D|-----------------------------------|

______________________________________________________

Verse x1
Pre-Chorus x1
chorus x 1

______________________________________________________

Bridge
After this little bass part it goes...
d|-4-----4----------------------------|
A|-5-----5----------------------------|
F|-4-----x-----9-----8----------------|
C|-6-----5-----9-----9------7---------|
G|-4-----3-----7-----6------7---------|
D|-------------0------------5---------|

d|-0------------0---------------------|
A|-5-----------12---------10-9--------|
F|-6-----13----13--------------11p9-9-|
C|-6-----x-----14-------9-------------|
G|-4-----11----------6 9--------------|
D|------------------------------------|

It's not right now...
d|------------------------------------|
A|------------------------------------|
F|-6-----5------9----8----------------|
C|-6-----6------9----9----7-----------|
G|-4-----3------7----6----7-----------|
D|--------------0---------5-----------|

d|-0------------0---------------------|
A|-5-----------12---------10----------|
F|-6-----13----13----8----9-----------|
C|-6-----x-----14----x----7-----------|
G|-4-----11----------6----------------|
D|------------------------------------|


(Note: this is how they end the bridge when playing acoustic.
It's probably different from the studio version)
d|------------------------------------|
A|------------------------------------|
F|-6-----5------9----8---------8------|
C|-6-----6------9----9----7----7------|
G|-4-----3------7----6----7----x------|
D|--------------0---------5----7------|

d|-0------------0---------------------|
A|-5-----------12---------10----------|
F|-6-----13----13----8----9----8------|
C|-6-----x-----14----x----7----x------|
G|-4-----11----------6---------6------|
D|------------------------------------|

______________________________________________________

Pre-Chorus:
I'd rather face the gallows...
d|-----------------------------|
A|-----------------------------|
F|-2--4--5--6--2--4------------|
C|-2--4--6--6--2--4------------|
G|-0--2--3--4--0--2------------|
D|-----------------------------|

d|-----------------------------|
A|-----------------------------|
F|-2--4--5--6--9--11-----------|
C|-2--4--6--6--x--x------------|
G|-0--2--3--4--7--9------------|
D|-----------------------------|

______________________________________________________

Chorus:
There is no love...
d|-----------------------------|
A|-----------------------------|
F|------2------4------9--------|
C|-2----2------4------9--------|
G|-2----0------2------7--------|
D|-0---------------------------|


d|-----------------------------|
A|-----------------------------|
F|-9-----------11-----13-------|
C|-x-----------x------x--------|
G|-7-----------9------11-------|
D|-----------------------------|

d|-----------------------------|
A|-----------------------------|
F|-2----6----4----9------------|
C|-2----6----4----9------------|
G|-0----4----2----7------------|
D|-----------------------------|


d|-----------------------------|
A|-----------------------------|
F|-13-/14-13-11---9------------|
C|-x---x--x--x----x------------|
G|-11-/12-11-9----7------------|
D|-----------------------------|

d|-----------------------------|
A|-----------------------------|
F|-2----6----4----9------------|
C|-2----6----4----9------------|
G|-0----4----2----7------------|
D|-----------------------------|


d|-----------------------------|
A|-----------------------------|
F|-13-/14-13-11---9------------|
C|-x---x--x--x----x------------|
G|-11-/12-11-9----7------------|
D|-----------------------------|


d|-----------------------------|
A|-----------------------------|
F|-2----6----4----9------------|
C|-2----6----4----9------------|
G|-0----4----2----7------------|
D|-----------------------------|


d|-----------------------------|
A|-----------------------------|
F|-13-/14-13-11---9------------|
C|-x---x--x--x----x------------|
G|-11-/12-11-9----7------------|
D|-----------------------------|
Tap to rate this tab
# A B C D E F G H I J K L M N O P Q R S T U V W X Y Z