Song name
# A B C D E F G H I J K L M N O P Q R S T U V W X Y Z

Bayside - Blame It On Bad Luck tab

I've looked through the tabs for this song, and..honestly..i really don't
think they're accurate to any extent, unless there's a non acoustic version
that i'm unaware of. this is my first tab. I am very confident that it is
!FLAWLESS! because i sat here 2 hours tabbing the sucker.
(as you may notice, there are two options for the verse covering either guitars because i'm nice)
(also, you have to play with the verse. It's not strumming. hit it, and let it go.
except, before the switches, there's just a small strum you have to pay attention to. 
listen to the song and you'll get it.)

FWI: (there are two guitars, the second guitar barely plays at all. This is all of the 
guitar's parts)


Blame It On Bad Luck
~standard tuning~
p = pulloff
h = hammeron
/ = slide
~ = let ring
* = abrupt stop

Intro
|-1~------1------------4p1----------1~-1~--------|
|-2~-------2--------------2---------2~-2~--------|
|-3~--------3--------------3~-------3~-2~--------|
|-3~---------1~---------------------3~-2~--------|
|-------------------0------------0--------0------|
|------------------------------------------------|

|-1~------1-----------1----------1~-1~---1p----------6-6-6-6-|
|-2~-------2-----------2---------2~-2~---2p------------------|
|-3~--------3-----------3~-------3~-2~---3p0~--------3-3-3-3-|
|-3~---------1~------------------3~-2~---3p0~----------------|
|------------------0----------0----------1p0~1-1-1-1---------|
|--------------------0---------------------------------------|

verse+prechorus
|-------------------------------------|
|-------------------------------------|
|-6-6-6-6-6-6-6-6-6-6-6-6-5-5-5-5-----|    x3
|-6-6-6-6-6-6-6-6-6-6-6-6-5-5-5-5-----|
|-4-4-4-4-4-4-4-4-4-4-4-4-3-3-3-3-----|
|-------------------------------------|

|--------------------------------------|
|--------------------------------------|
|-6-6-6-6-6-6-6-6-8-8---8--8-10-10--10-|
|-6-6-6-6-6-6-6-6-8-8---8--8-10-10--10-|
|-4-4-4-4-4-4-4-4-6-6---6--6--8--8---8-|
|--------------------------------------|

or/with...
|-1-1-1-1-1-1-1-1-1-1-1-1-1-1-1-1----|
|-2-2-2-2-2-2-2-2-2-2-2-2-2-2-2-2----|
|-3-3-3-3-3-3-3-3-3-3-3-3-2-2-2-2----|   x4
|-3-3-3-3-3-3-3-3-3-3-3-3-2-2-2-2----|
|------------------------------------|
|------------------------------------|

chorus
|---------------------------------------------------------------|
|---------------------------------------------------------------|
|------------------------5-5-5-5-6--6-6-6-6-6-6-6-6-6-6-8-8-8-8-|
|-8--8-8-8-8-8-8-8-8-8-8-3-3-3-3-6--6-6-6-6-6-6-6-6-6-6-8-8-8-8-|
|-8--8-8-8-8-8-8-8-8-8-8-3-3-3-3-4--4-4-4-4-4-4-4-4-4-4-6-6-6-6-|
|-6--6-6-6-6-6-6-6-6-6-6----------------------------------------|

|-----------------------------------------------------------------|
|-----------------------------------------------------------------|
|-10--10-10-10-10-10-10-10-10-10-10-6-6-6-6-10--10-10-10-10-10-10-|
|-10--10-10-10-10-10-10-10-10-10-10-6-6-6-6-10--10-10-10-10-10-10-|
|--8---8--8--8--8--8--8--8--8--8--8-4-4-4-4--8---8--8--8--8--8--8-|
|-----------------------------------------------------------------|

|---------------                                  ---|
|---------------                                  ---|
|---------------                                  ---|
|-6--6-6-6-6-6-6    repeat twice. 2nd time end on -8-|
|-6--6-6-6-6-6-6                                  -8-|
|-4--4-4-4-4-4-4                                  -6-|

solo
|------------------------------------------------------|
|------------------------------------------------------|
|------------------------------------------------------|
|------8h6---8-----------------------------------------|    x2
|---------6h8---6h9p8p6/4--------4-4-6------4b---------|
|------------------------6------6-6-----4h6----4-6-----|

verse+prechorus
|-------------------------------------|
|-------------------------------------|
|-6-6-6-6-6-6-6-6-6-6-6-6-5-5-5-5-----|    x3
|-6-6-6-6-6-6-6-6-6-6-6-6-5-5-5-5-----|
|-4-4-4-4-4-4-4-4-4-4-4-4-3-3-3-3-----|
|-------------------------------------|

|--------------------------------------|
|--------------------------------------|
|-6-6-6-6-6-6-6-6-8-8---8--8-10-10--10-|
|-6-6-6-6-6-6-6-6-8-8---8--8-10-10--10-|
|-4-4-4-4-4-4-4-4-6-6---6--6--8--8---8-|
|--------------------------------------|

or...
|-1-1-1-1-1-1-1-1-1-1-1-1-1-1-1-1----|
|-2-2-2-2-2-2-2-2-2-2-2-2-2-2-2-2----|
|-3-3-3-3-3-3-3-3-3-3-3-3-2-2-2-2----|   x4
|-3-3-3-3-3-3-3-3-3-3-3-3-2-2-2-2----|
|------------------------------------|
|------------------------------------|

chorus
|---------------------------------------------------------------|
|---------------------------------------------------------------|
|------------------------5-5-5-5-6--6-6-6-6-6-6-6-6-6-6-8-8-8-8-|
|-8--8-8-8-8-8-8-8-8-8-8-3-3-3-3-6--6-6-6-6-6-6-6-6-6-6-8-8-8-8-|
|-8--8-8-8-8-8-8-8-8-8-8-3-3-3-3-4--4-4-4-4-4-4-4-4-4-4-6-6-6-6-|
|-6--6-6-6-6-6-6-6-6-6-6----------------------------------------|

|-----------------------------------------------------------------|
|-----------------------------------------------------------------|
|-10--10-10-10-10-10-10-10-10-10-10-6-6-6-6-10--10-10-10-10-10-10-|
|-10--10-10-10-10-10-10-10-10-10-10-6-6-6-6-10--10-10-10-10-10-10-|
|--8---8--8--8--8--8--8--8--8--8--8-4-4-4-4--8---8--8--8--8--8--8-|
|-----------------------------------------------------------------|

|---------------                                  -------------------------|
|---------------                                  ----------------------6~-|
|---------------                                  -4--4--4-4-4-4-6-6----6~-|
|-6--6-6-6-6-6-6    repeat twice. 2nd time end on -4--4--4-4-4-4-6-6----4~-|
|-6--6-6-6-6-6-6                                  -2--2--2-2-2-2-4-4-------|
|-4--4-4-4-4-4-4                                  -------------------------|

Interlude
|---------------------------------------------------------------|
|---------------------------------------------------------------|
|-----------------8-8---10----10----10----10----10----10----10--|   x2
|--6----6----6---6-6---8--8--8--8--8--8--8--8--8--8--8--8--8--8-|
|-4-4--4-4--4-4-------------------------------------------------|
|---------------------------------------------------------------|

|-----------------------------------------------------------------------|
|-----------------------------------------------------------------------|
|--------------6~-6-6-6-6-6-6-------------------------------------------|
|---4--4-4-4-4-6~-6-6-6-6-6-6-3--3--3--3-3/8-8-8-8/6-6-6-6/4--4-4-4-4-4-|
|---4--4-4-4-4-4~-4-4-4-4-4-4-3--3--3--3-3/8-8-8-8/6-6-6-6/4--4-4-4-4-4-|
|---2--2-2-2-2----------------1--1--1--1-1/6-6-6-6/4-4-4-4/2--2-2-2-2-2-|

|----------------------------------------------------------|
|----------------------------------------------------------|
|--------------6~-6-6-6-6-6-6------------------------------|
|---4--4-4-4-4-6~-6-6-6-6-6-6-3--3--3--3-3---3--3--3--3-3--|
|---4--4-4-4-4-4~-4-4-4-4-4-4-3--3--3--3-3---3--3--3--3-3--|
|---2--2-2-2-2----------------1--1--1--1-1---1--1--1--1-1--|

|-----------------------------------------------------------------------|
|-----------------------------------------------------------------------|
|--------------6~-6-6-6-6-6-6-------------------------------------------|
|---4--4-4-4-4-6~-6-6-6-6-6-6-3--3--3--3-3/8-8-8-8/6-6-6-6/4--4-4-4-4-4-|
|---4--4-4-4-4-4~-4-4-4-4-4-4-3--3--3--3-3/8-8-8-8/6-6-6-6/4--4-4-4-4-4-|
|---2--2-2-2-2----------------1--1--1--1-1/6-6-6-6/4-4-4-4/2--2-2-2-2-2-|

|----------------------------------------------------------------------|
|----------------------------------------------------------------------|
|--------------6~-6-6-6-6-6-6------------------------------------------|
|---4--4-4-4-4-6~-6-6-6-6-6-6-3--3--3--3-3---3--3--3--3-3--4-4---4-4-4-|
|---4--4-4-4-4-4~-4-4-4-4-4-4-3--3--3--3-3---3--3--3--3-3--4-4---4-4-4-|
|---2--2-2-2-2----------------1--1--1--1-1---1--1--1--1-1--2-2---2-2-2-|

|-----------------------------------------------------------------|
|-----------------------------------------------------------------|
|-----------------------------------------------------------------|
|-6-6---6-6-6/8-8---8-8-8/10-10---10-10-10/4-4---4-4-4/6*-6*-6/8~-|
|-6-6---6-6-6/8-8---8-8-8/10-10---10-10-10/4-4---4-4-4/6*-6*-6/8~-|
|-4-4---4-4-4/6-6---6-6-6/-8--8----8--8--8/2-2---2-2-2/4*-4*-4/6~-|

chorus
|---------------------------------------------------------------|
|---------------------------------------------------------------|
|------------------------5-5-5-5-6--6-6-6-6-6-6-6-6-6-6-8-8-8-8-|
|-8--8-8-8-8-8-8-8-8-8-8-3-3-3-3-6--6-6-6-6-6-6-6-6-6-6-8-8-8-8-|
|-8--8-8-8-8-8-8-8-8-8-8-3-3-3-3-4--4-4-4-4-4-4-4-4-4-4-6-6-6-6-|
|-6--6-6-6-6-6-6-6-6-6-6----------------------------------------|

|-----------------------------------------------------------------|
|-----------------------------------------------------------------|
|-10--10-10-10-10-10-10-10-10-10-10-6-6-6-6-10--10-10-10-10-10-10-|
|-10--10-10-10-10-10-10-10-10-10-10-6-6-6-6-10--10-10-10-10-10-10-|
|--8---8--8--8--8--8--8--8--8--8--8-4-4-4-4--8---8--8--8--8--8--8-|
|-----------------------------------------------------------------|

|---------------                          ------------------------------|
|---------------                          ------------------------------|
|---------------                          ------------------------------|
|-6--6-6-6-6-6-6 repeat twice. 2nd end on -4--4--4-4-4-4-6*-6*-7*-7*-8~-|
|-6--6-6-6-6-6-6                          -4--4--4-4-4-4-6*-6*-7*-7*-8~-|
|-4--4-4-4-4-4-4                          -2--2--2-2-2-2-4*-4*-5*-5*-6~-|



congratulations you can now play "Blame It On Bad Luck" by "Bayside". send me feedback 
do whatever you want to do. enjoy.
Tap to rate this tab
# A B C D E F G H I J K L M N O P Q R S T U V W X Y Z