Song name
# A B C D E F G H I J K L M N O P Q R S T U V W X Y Z

Bayside - They Looked Like Strong Hands Acoustic tab

“They Looked Like Strong Hands” (acoustic)
Bayside
Tabbed by Brad Vincent
Tuning:  C# F# B E G# C#
	Bayside’s Acoustic album is one of my favorite albums. This is a
good song that no one seemed to get right all the way and I didn’t have
anything to do so I thought I’d try and see what I could do to it. I know
there are two guitars in it but I kind of just mixed them the most fun way
to play them. You don’t have to play it exactly how I’ve tabbed but as long
as play the base chords and fiddle around with them it all sounds good. Please rate/comment


Key: /  Slide up
     \  Slide down
     h  Hammer-on
     p  Pull-off
     ~  Vibrato
     ^  Bend to
     R  Return bend to
     +  Harmonic
     x  Mute note
     *  Palm Mute

Intro  x1
Verse  x1
Chorus x2
Verse  x1
Chorus x2
Bridge x1
Chorus x2

Intro

C#|---------------------------------------------|
F#|---------------------------------------------|
B |------------------------8^9—8~~~~9-8-6-------|
E |----------------6-----6----------------9-7-6-|
G#|-x--x--0-----7-----7-------------------------|
C#|-x--x--0-/9----------------------------------|

C#|-------------------------------------|
F#|-------------------------------------|
B |-------------------------------------|
E |-------------------------6h7p6---6---|
G#|-----7--9--9^10r9—7~~9-7-------9---7-|
C#|-/9----------------------------------|

C#|-------------------------------------|
F#|-------------------------------------|
B |----------------8^9—8~~~~9-8-6-------|
E |--------6-----6----------------9-7-6-|
G#|-----7-----7-------------------------|
C#|-/9----------------------------------|

C#|--------------------------------------------|
F#|--------------------------------------------|
B |--------------------------------------------|
E |--------------------------------------------|
G#|-----7--9--9^10r9—7~~9-7--9-9^10-9h10p9p7-4-|
C#|-/9-----------------------------------------|


Verse

C#|--4--4--------4--\-0--0-----0--/-2--2------/-5--5------\-|
F#|--5----5------5--\-0----0---0--/-2----2----/-5----5----\-|
B |--6--------6--6--\-1------1-1--/-3------3--/-6------6--\-|
E |--6--------6--6--\-2--------2--/-4---------/-7---------\-|
G#|--4------4-4--4--\-2--------2--/-4---------/-7---------\-|
C#|-----------------\-0--------0--/-2---------/-5---------\-|

C#|-0--0-0--0-0--0-0--0--/-4---4--4--4--4--4--4----\-0---0---0--0---/-|
F#|-0--0-0--0-0--0-0--0--/-5----5--5--5--5--5--5---\-0-----0-0----0-/-|
B |-1--1-1--1-1--1-1--1--/-6-----6--6--6--6--6--6--\-1-------1------/-|
E |-2-----2----2----2----/-6-----------------------\-2-------2------/-|
G#|-2-----2----2----2----/-4-----------------------\-2-------2------/-|
C#|-0-----0----0----0----/-------------------------\-0-------0------/-|

C#|-2--2------/-5--------5--------\-0--------0-------0-------0---x-|
F#|-2----2----/-5--------5--------\-0--------0-------0-------0---x-|
B |-3---------/-6--------6--------\-1--------1-------1-------1---x-|
E |-4---------/-7--7--7--7--7--7--\-2-2--2--2-2--2--2-2--2--2-2--x-|
G#|-4------4--/-7--7--7--7--7--7--\-2-2--2--2-2--2--2-2--2--2-2--x-|
C#|-2---------/-5--5--5--5--5--5--\-0-0--0--0-0--0--0-0--0--0-0--x-|


Chorus

C#|-x-0--0------0-0-----------------4--4------------------------------------|
F#|-x-0--0-----0--0-----------------5---5-----------------------------------|
B |-x-0--2----2---0------0-------6--6----6--6-------------------------------|
E |-x-0--2---2----0----2---2---2-6--6-----6-6--6-6--6--6-6/7--7--7-7/9--9-9-|
G#|-x-0--0--0-----0-/3-------3---4--4-------4--7-7--7--7-7-7--7--7-7/9--9-9-|
C#|-x-0-----------0----------------------------4-4--4--4-4/5--5--5-5/7--7-7-|

C#|---------------------------------------------|
F#|---------------------------------------------|
B |-8/9-9-9--9-8/9-9-9--9-8/9-9-9--9-8/9-9-9--9-|
E |-9-9-9-9--9-9-9-9-9--9-9-9-9-9--9-9-9-9-9--9-|
G#|-6/7-7-7--7-6/7-7-7--7-6/7-7-7--7-6/7-7-7--7-|
C#|---------------------------------------------|


Bridge


C#|-----------------------------------------------|
F#|-----------------------------------------------|
B |-----------------------------------------4^6r4-|
E |-------6-6-6-----7-6-4---------6-6-6-----------|
G#|-4-4-4-------4-4-------7-4-4-4-------4-4-------|
C#|-----------------------------------------------|


C#|-----------------------------------------------|
F#|-----------------------------------------------|
B |-----------------------------------------4^6r4-|
E |-------6-6-6-----7-6-4---------6-6-6-----------|
G#|-4-4-4-------4-4-------7-4-4-4-------4-4-------|
C#|-----------------------------------------------|


C#|---------------------------------------------------------|
F#|---------------------------------------------------------|
B |-----------------------------------------4^6r4-----------|
E |-------6-6-6-----7-6-4---------6-6-6-----------------6~~-|
G#|-4-4-4-------4-4-------7-4-4-4-------4-4---------4~~-----|
C#|---------------------------------------------------------|


C#|-------------------------------------------------------------------|
F#|-------------------------------------------------------------------|
B |-------------2--2-2-4--4-4-----------------------------------------|
E |-----7-6-4---2--2-2-4--4-4-2---6---2---6-4-2-6--4-6-4-2--2---6---2-|
G#|-4~~-------7-0--0-0-2--2-2-2---6---2---6-4-2-6--4-6-4-2--2---6---2-|
C#|---------------------------0---4---0---4-2-0-4--2-4-2-0--0---4---0-|


C#|------------------|
F#|------------------|
B |------------------|
E |-6-4-2-6--4-6-4-2-|
G#|-6-4-2-6--4-6-4-2-|
C#|-4-2-0-4--2-4-2-0-|


Tap to rate this tab
# A B C D E F G H I J K L M N O P Q R S T U V W X Y Z