Song name
# A B C D E F G H I J K L M N O P Q R S T U V W X Y Z

Bayside - Beautiful Girls tab

100% correct i promise find the timing

KEY:

/   Slide up (make sure it is a short brisk slide)

~  Let Ring

~^  Let Ring with a slow bend upwards or down which ever u prefer



Jack O'Shea (intro)
D--------------------------------------------------------------------------|
A--------------------------------------------------------------------------|
F-----------------13-------------------------------------------------------|
C---/13-11-9--/16----11-13--69-69-69--11-13-13-11-9--13-11-11-9-13-11-11-9-]
G--------------------------------------------------------------------------|
D--------------------------------------------------------------------------|

D-------------------------------------|
A-------------------------------------|
F-------------------------------------|
C-------9~----9~--11~^----------------|
G--9-11----11-------------------------|
D-------------------------------------|
Tap to rate this tab
# A B C D E F G H I J K L M N O P Q R S T U V W X Y Z