Song name
# A B C D E F G H I J K L M N O P Q R S T U V W X Y Z

Bayside - Devotion And Desire tab

hey this is my version of the solo
i think my version sounds the nearest to it and more fun to play
hope u think so plz rate and all comments are welcome :)

its in drop D tuning

|---------------------------------------------------|
|-------13------------------------------------------|
|--12b13--12-14p12-10-9-10--9------9-10--9----------|
|-------------------------12--10-12----12-10-12-10--|
|---------------------------------------------------|
|---------------------------------------------------|

|-----------------------------------------------------5----|
|------------------------------------------------------5---|
|-------------------------------------------------------6--|
|--------------------------------3-3-5b6r5-3-3-5/7-8-7-----|
|-8-10-10b11r10-88-3-5-3-5~---3-5-5---------5--------------|
|----------------------------------------------------------|

|--10p0-8p0-6p0-5p0-3p0-6p0-5p0-3p0-8p0-6p0-10p0-8p0-12p0-10p0-12b13--|
|---------------------------------------------------------------------|
|---------------------------------------------------------------------|
|---------------------------------------------------------------------|
|---------------------------------------------------------------------|
|---------------------------------------------------------------------|

|---------------10--------------------------------5-6-5--|
|------------------------15-13---------------5----5-5-5--|
|--12b13r12p10------12h14-----14-12--------5--5---5-5-5--|
|-------------12-------------------11-----7----7--7-7-7--|
|--------------------------------------5h8---------------|
|--------------------------------------------------------|


cheers for checking it out :)
Tap to rate this tab
# A B C D E F G H I J K L M N O P Q R S T U V W X Y Z