Song name
# A B C D E F G H I J K L M N O P Q R S T U V W X Y Z

Bayside - Megan Acoustic tab

[-----]Rake
e|---------------------------|-----------------------------------|
b|---------------------------|-----10-9-7------------------------|
g|-9b(11)-6------------------|---9--------9--7\6-7p6-------------|
d|----------9-9b(11)r9p7-----|-7---------------------9p7-9p7---7-|
a|-----------------------9-9-|-------------------------------9---|
E|---------------------------|-----------------------------------|

[---]Rake
e|--------------------|-------------------------|----------------------------|
b|-----12b(14)-10-12v-|-15-14-12\10-10-12-11-11-|----------------------------|
g|---X----------------|-------------------------|-\11-9-7----7-9-11p9-7------|
d|-X------------------|-------------------------|---------11------------11-9-|
a|--------------------|-------------------------|----------------------------|
E|--------------------|-------------------------|----------------------------|

e|----------------------------|-----------------------------------------|
b|----------------------------|--------X--------------------------------|
g|----------------------------|-9b(11)-X-9b(11)r--6h9p6---6-------------|
d|----7--------------7--9p7---|--------X----------------9---9p7---7h9p7-|
a|-\9---9p7p5--9-7-9--------9-|--------X------------------------9-------|
E|----------------------------|-----------------------------------------|

e|-----------------|
b|---10-----10-----|
g|------9------9---|
d|-7------7------7-|
a|-----------------|
E|-----------------|
Tap to rate this tab
 
# A B C D E F G H I J K L M N O P Q R S T U V W X Y Z