Bayside - Its Not A Bad Little War tab

D standard drop C

the strumming isnt there obviously but this is pretty much it. oh and no solo. 
thats someone elses job.

Intro:

-------------------------------------------------|
--------10--8---------------10--8----------------|
----------------10 10----------------10~~~-------|
-----10-----------------10-----------------------|
-------------------------------------------------|
-------------------------------------------------|

Intro pt 2:

----------------------------------------------------------------------|
--------10--8--------------10--8--------------------------------------|
---------------10-----------------10------10--9--7---10p9-7/5-5/7-----|
----10----------------10---------------7------------------------------|
----------------------------------------------------------------------|
----------------------------------------------------------------------|

Intro pt 3:

---------------------------------|
---------------------------------|
--3----5-------------------------|
--3----5-------------------------|
--1----3-------------------------|
---------------------------------|

Intro Guitar 2
2nd guitar uses verse chords

Verse:

------------------------------------|
------------------------------------|
---------------7---9----------------|
---3-----------7---9-or-2-----------| X2
---3-----------5---7----2-----------|
---3-----------0--------2-----------|

Pre Chorus

--------------------------------------------------------------|
--------------------------------------------------------------|
---3-------5--------------------------------------------------|
---3-X18---5--------------------------------------------------|
---1-------3--------------------------------------------------|
--------------------------------------------------------------|
********pm***

Chorus:

------------------------------------|
------------------------------------|
---------------7---9----------------|
---3-----------7---9-or-2-----------| X2
---3-----------5---7----2-----------|
---3-----------0--------2-----------|

Chorus pt 2:

------------------------------------|
------------------------------------|
---3----5---------------------5-----|
---3----5-----3/7---0----5----5-----|
---1----3-----3/7---0----5----3-----|
--------------3/7---0----5----------|

Bridge

------------------------------------|
------------------------------------|
--------7--------7--------5~~~------|
---5----7---5----7---5----5~~~------|
---5----5---5----5---5----3~~~------|
---5----0---5----0---5--------------|


Ending
------------------------------------|
------------------------------------|
--3-------5---9---10----------------|
--3---3---5---9---10----------------|
--1---3---3---7---8-----------------|
------3-----------------------------|

-szember
Tap to rate this tab
 
# A B C D E F G H I J K L M N O P Q R S T U V W X Y Z