Song name
# A B C D E F G H I J K L M N O P Q R S T U V W X Y Z

Bayside - They Looked Like Strong Hands tab

-----------------------------------------------------------------------------
	              They Looked Like Strong Hands - Bayside
-----------------------------------------------------------------------------

Tabbed by: Blake

Feel free to leave a comment if something's wrong.

Tuning: Drop D


Intro Solo: 
e|---------------------------------|
B|---------------------------------| 
G|-----------/7-6~-7-6-4-----------|
D|-----4---4-------------7-5-4-----|
A|-2-5---5-------------------------|
D|---------------------------------|

e|--------------------------------|
B|--------------------------------| 
G|--------------------------------|
D|----------------4h5p4---4-------|
A|-2-5-7-7b-5-7-5-------7---5-----|
D|--------------------------------|



Verse: 
It's mainly bass, but I think it's something like this.
Slide to the notes, don't hit.
Start when he hits the high note in "confidence."
Also during the verse harmonics on 7 sound decent as well as kind of tapping the 
back of the guitar to get that drop D noise.
e|---------------------------------------|
B|---------------------------------------| 
G|-7~--------5~--------4~--------0~------|
D|---------------------------------------|
A|---------------------------------------|
D|---------------------------------------|
 


Pre-Chorus:
Just the sound before the chorus.
e|--------|
B|--------|
G|--------|
D|--x--x--|
A|--x--x--|
D|--x--x--|
    v  ^


Chorus:
e|------------------------|
B|------------------------|
G|------------------------|
D|--5--8--9--4--5--7--0---|
A|--5--8--9--4--5--7--0---|
D|--5--8--9--4--5--7--0---|



Verse:
Bass again and slight guitar, but there's a riff in this one.
It plays a few times throughout the verse.
Harmonics on 7 also sound decent here too.
e|-------------------------------|
B|-------------------------------| 
G|-------------------------------|
D|-------------------------------|
A|-4h5-5-4-4h5-5-4-4h5-5-4-4h5-5-|
D|-------------------------------|
pm .     . .     . .     . .



Pre-Chorus:
Just the sound before the chorus.
e|--------|
B|--------|
G|--------|
D|--x--x--|
A|--x--x--|
D|--x--x--|
    v  ^



Chorus:
e|-----------------------|
B|-----------------------|
G|-----------------------|
D|-5--8--9--4--5--7--0---|
A|-5--8--9--4--5--7--0---|
D|-5--8--9--4--5--7--0---|



1st Part of Bridge:
e|-------------------------------------|
B|-------------------------------------|
G|-------------------------------------|
D|-------------------------------------|
A|-------4-4-4-----5-4-2-0-------------|
D|-2-2-2-------2-2---------------------|
pm . . . . . . . . . . . . 

e|-------------------------------------|
B|-------------------------------------|
G|-----------------2h4p2---------------|
D|-------------------------------------|
A|-------4-4-4-------------------------|
D|-2-2-2-------2-2---------------------|
pm . . . . . . . . 

End 1st Part With:
e|-------------------------------------|
B|-------------------------------------|
G|-------------------------------------|
D|-------------------------5-2-2-2-----|
A|-------4-4-4-----5-4-2-0-5-0-0-0-----|
D|-2-2-2-------2-2---------5-----------|
pm . . . . . . . . . . . . 




2nd Part of Bridge:
e|----------------------------------|
B|----------------------------------|
G|----------------------------------|
D|-0-4-0-7-7-7-9-7-9-7-0--0-4-7-----|
A|-0-4-0-5-4-7-9-7-9-7-0--0-4-5-----|
D|-0-4-0-----7-9-7-9-7-0--0-4-------|

Guitar 2 (comes in after first time): 
e|------------------------------------------|
B|------------------------------------------|
G|-7-7-7-7-6-7--7-7-7-7-6-7--/11-9/11-9-7---|
D|-x-x-x-x-x-x--x-x-x-x-x-x---x--x-x--x-x---|
A|-5-5-5-5\4/5--5-5-5-5\4/5--/9--7/9--7-5---|
D|------------------------------------------|



Chorus:
e|-----------------------|
B|-----------------------|
G|-----------------------|
D|-5--8--9--4--5--7--0---|
A|-5--8--9--4--5--7--0---|
D|-5--8--9--4--5--7--0---|



End On:
e|-------|
B|-------|
G|-------|
D|---0---|
A|---0---|
D|---0---|
Tap to rate this tab
 
# A B C D E F G H I J K L M N O P Q R S T U V W X Y Z