Song name
# A B C D E F G H I J K L M N O P Q R S T U V W X Y Z

Bayside - Already Gone tab

This is my first tab so its a bit sloppy but 95-99% correct id say
bayside has two guitarist i tabbed out anthony's part

my cover on youtube to see how its played
-http://www.youtube.com/watch?v=kVWwGvcdABE

Tuning:D G C F A D

i have sick sick sick, mona lisa, on love on life, and dont come easy tabbed out 
in my head if this does well ill post them.

and it starts off with a pick slide


Intro


D -----------------------------------------------------------------|
A -----------------------------------------------------------------|
F -----------------------------------------------------------------|
C --------------------2-2-2-2--------------------------------------|
G ------------------5---------5-2-0----------2-0--2-2-2-2-2-2-2-2--|
D 0-0-0-0-0-0-0-3-5-----------------3-3-3-3-3---3------------------|

D -----------------------------------------------------------------|
A -----------------------------------------------------------------|
F -----------------------------------------------------------------|
C ---------------------2-2-2-2-------------------------------------|
G -------------------5---------5-2-0----------5-2-0-5-5-5-5--------|
D 0000-0-0-0-0-0-3-5-----------------3-3-3-3-3--------------7-7-7--|

Verse
D -----------------------------------------------------------------|
A -----------------------------------------------------------------|
F ----------------5-5-5-5-5-5-5-5\4-4-4-4/8-8-8-8------------------|
C 2-2-2-2-2-2-2-2--------------------------------------------------|
G 2-2-2-2-2-2-2-2-3-3-3-3-3-3-3-3\2-2-2-2/6-6-6-6------------------|
D 0-0-0-0-0-0-0-0--------------------------------------------------|
                                                                       x2
D -----------------------------------------------------------------|
A -----------------------------------------------------------------|
F ----------------5-5-5-5-5-5-5-5-7-7-7-7-8-8-8-8------------------|
C 2-2-2-2-2-2-2-2-5-5-5-5-5-5-5-5-7-7-7-7-8-8-8-8------------------|
G 2-2-2-2-2-2-2-2-3-3-3-3-3-3-3-3-5-5-5-5-6-6-6-6------------------|
D 0-0-0-0-0-0-0-0--------------------------------------------------|

Pre-Chorus

D -------|
A -------|
F -------|
C 2------|
G 2------|
D 0------|

Chorus

D ------------------------------------------------------------------|
A ------------------------------------------------------------------|
F 5-5-5-5-5-5-5-5---------------------------------------------------|
C 5-5-5-5-5-5-5-5-5-5-5-5-5-5-5-5-2-2-2-2-2-2-5-5-5-5-5-5-----------|
G 3-3-3-3-3-3-3-3-5-5-5-5-5-5-5-5-2-2-2-2-2-2-5-5-5-5-5-5-----------|
D ----------------3-3-3-3-3-3-3-3-0-0-0-0-0-0-3-3-3-3-3-3-----------|

D ------------------------------------------------------------------|
A ------------------------------------------------------------------|
F 5-5-5-5-5-5-5-5-4-4-4-4-4-4-4-4-4---------------------------------|
C 5-5-5-5-5-5-5-5-5-5-5-5-5-5-5-5-5-5-5-5-5-5-5-5-5-----------------|
G 3-3-3-3-3-3-3-3-2-2-2-2-2-2-2-2-2-5-5-5-5-5-5-5-5-----------------|
D ----------------------------------3-3-3-3-3-3-3-3-----------------|

D -----------------------------------------------------------------------|
A -----------------------------------------------------------------------|
F 4-4-4-4-4-4-4-4-5-5-5-5-5-5-5-5----------------------------------------|
C 4-4-4-4-4-4-4-4-5-5-5-5-5-5-5-5-5-5-5-5-5-5-5-5-2-2-2-2-2-2-5-5-5-5-5-5|
G 2-2-2-2-2-2-2-2-3-3-3-3-3-3-3-3-5-5-5-5-5-5-5-5-2-2-2-2-2-2-5-5-5-5-5-5|
D --------------------------------3-3-3-3-3-3-3-3-0-0-0-0-0-0-3-3-3-3-3-3|

D ------------------------------------------------------------------|
A ------------------------------------------------------------------|
F 5-5-5-5-5-5-5-5-4-4-4-4-4-4-4-4-4---4-----------------------------|
C 5-5-5-5-5-5-5-5-5-5-5-5-5-5-5-5-5-5-4-----------------------------|
G 3-3-3-3-3-3-3-3-2-2-2-2-2-2-2-2-2-5-2-----------------------------|
D ----------------------------------3-------------------------------|

D -----------------------------------------------------------------|
A -----------------------------------------------------------------|
F -----------------------------------------------------------------|
C --------------------2-2-2-2--------------------------------------|
G ------------------5---------5-2-0----------2-0--2-2-2-2-2-2-2-2--|
D 0-0-0-0-0-0-0-3-5-----------------3-3-3-3-3---3------------------|

D -----------------------------------------------------------------|
A -----------------------------------------------------------------|
F -----------------------------------------------------------------|
C ---------------------2-2-2-2-------------------------------------|
G -------------------5---------5-2-0----------5-2-0-5-5-5-5--------|
D 0000-0-0-0-0-0-3-5-----------------3-3-3-3-3--------------7-7-7--|

jack plays this during the first part of the verse then back to the original chords

D 7-7-7-7-7-7-7-7--------------------------------------------------|
A 8-8-8-8-8-8-8-8--------------------------------------------------|
F 9-9-9-9-9-9-9-9-5-5-5-5-5-5-5-5\4-4-4-4/8-8-8-8------------------|
C 9-9-9-9-9-9-9-9--------------------------------------------------|
G ----------------3-3-3-3-3-3-3-3\2-2-2-2/6-6-6-6------------------|
D -----------------------------------------------------------------|
                                                                       x2
D 7-7-7-7-7-7-7-7--------------------------------------------------|
A 8-8-8-8-8-8-8-8--------------------------------------------------|
F 9-9-9-9-9-9-9-9-5-5-5-5-5-5-5-5-7-7-7-7-8-8-8-8------------------|
C 9-9-9-9-9-9-9-9-5-5-5-5-5-5-5-5-7-7-7-7-8-8-8-8------------------|
G ----------------3-3-3-3-3-3-3-3-5-5-5-5-6-6-6-6------------------|
D -----------------------------------------------------------------|

D -----------------------------------------------------------------|
A -----------------------------------------------------------------|
F --9---9---9---9---5-5-5-5-5-5-5-5\4-4-4-4/8-8-8-8----------------|
C --9---9---9---9--------------------------------------------------|
G --7---7---7---7---3-3-3-3-3-3-3-3\2-2-2-2/6-6-6-6----------------|
D 00-000-000-000---------------------------------------------------|

D -----------------------------------------------------------------|
A -----------------------------------------------------------------|
F ----------------5-5-5-5-5-5-5-5-7-7-7-7-8-8-8-8------------------|
C 2-2-2-2-2-2-2-2-5-5-5-5-5-5-5-5-7-7-7-7-8-8-8-8------------------|
G 2-2-2-2-2-2-2-2-3-3-3-3-3-3-3-3-5-5-5-5-6-6-6-6------------------|
D 0-0-0-0-0-0-0-0--------------------------------------------------|

D -------|
A -------|
F -------|
C 2------|
G 2------|
D 0------|
Chorus
D ------------------------------------------------------------------|
A ------------------------------------------------------------------|
F 5-5-5-5-5-5-5-5---------------------------------------------------|
C 5-5-5-5-5-5-5-5-5-5-5-5-5-5-5-5-2-2-2-2-2-2-5-5-5-5-5-5-----------|
G 3-3-3-3-3-3-3-3-5-5-5-5-5-5-5-5-2-2-2-2-2-2-5-5-5-5-5-5-----------|
D ----------------3-3-3-3-3-3-3-3-0-0-0-0-0-0-3-3-3-3-3-3-----------|

D ------------------------------------------------------------------|
A ------------------------------------------------------------------|
F 5-5-5-5-5-5-5-5-4-4-4-4-4-4-4-4-4---------------------------------|
C 5-5-5-5-5-5-5-5-5-5-5-5-5-5-5-5-5-5-5-5-5-5-5-5-5-----------------|
G 3-3-3-3-3-3-3-3-2-2-2-2-2-2-2-2-2-5-5-5-5-5-5-5-5-----------------|
D ----------------------------------3-3-3-3-3-3-3-3-----------------|

D -----------------------------------------------------------------------|
A -----------------------------------------------------------------------|
F 4-4-4-4-4-4-4-4-5-5-5-5-5-5-5-5----------------------------------------|
C 4-4-4-4-4-4-4-4-5-5-5-5-5-5-5-5-5-5-5-5-5-5-5-5-2-2-2-2-2-2-5-5-5-5-5-5|
G 2-2-2-2-2-2-2-2-3-3-3-3-3-3-3-3-5-5-5-5-5-5-5-5-2-2-2-2-2-2-5-5-5-5-5-5|
D --------------------------------3-3-3-3-3-3-3-3-0-0-0-0-0-0-3-3-3-3-3-3|

Chorus into bridge
D ------------------------------------------------------------------|
A ------------------------------------------------------------------|
F 5-5-5-5-5-5-5-5-4-4-4-4-4-4-4-4-4---4-5---------4-5---8-4-4-------|
C 5-5-5-5-5-5-5-5-5-5-5-5-5-5-5-5-5-5-4-5-5-2-4-5-5-5-5-8-4-4-------|
G 3-3-3-3-3-3-3-3-2-2-2-2-2-2-2-2-2-5-2-3-5-2-5-5-2-3-5-6-2-2-------|
D ----------------------------------3-----3-0-2-3-----3-------------|

D ----------------------------------------------------------------------|
A ----------------------------------------------------------------------|
F 5-5-5-5-8-8-8-8-4-4-4-4-9-9-7-7-5-5-5-5-8-8-8-8-12-12-12-12-4-4-4-4---|
C 5-5-5-5-8-8-8-8-4-4-4-4-9-9-7-7-5-5-5-5-8-8-8-8-12-12-12-12-4-4-4-4---|
G 3-3-3-3-6-6-6-6-2-2-2-2-7-7-5-5-3-3-3-3-6-6-6-6-10-10-10-10-2-2-2-2---|
D ----------------------------------------------------------------------|

D -------------------------------------------------------------------------|
A -------------------------------------------------------------------------|
F 5-5-5-5-8-8-8-8-4-4-4-4-9-9-7-7-5-5-5-5-5-5-5-5-5-5-5-4-4-4-4-4-4-8-8-8-8|
C 5-5-5-5-8-8-8-8-4-4-4-4-9-9-7-7-5-5-5-5-5-5-5-5-5-5-5-5-5-5-5-5-5-8-8-8-8|
G 3-3-3-3-6-6-6-6-2-2-2-2-7-7-5-5-3-3-3-3-3-3-3-3-3-3-3-2-2-2-2-2-2-6-6-6-6|
D -------------------------------------------------------------------------|

Intro (palm muted)- with the exception of a few notes- just listen to it.


D -----------------------------------------------------------------|
A -----------------------------------------------------------------|
F -----------------------------------------------------------------|
C --------------------2-2-2-2--------------------------------------|
G ------------------5---------5-2-0----------2-0--2-2-2-2-2-2-2-2--|
D 0-0-0-0-0-0-0-3-5-----------------3-3-3-3-3---3------------------|
  pm-------------------------------------------------------------->
D -----------------------------------------------------------------|
A -----------------------------------------------------------------|
F -----------------------------------------------------------------|
C ---------------------2-2-2-2-------------------------------------|
G -------------------5---------5-2-0----------5-2-0-5-5-5-5--------|
D 0000-0-0-0-0-0-3-5-----------------3-3-3-3-3--------------7-7-7--|
  pm-------------------------------------------------------------->


D -----------------------------------------------------------------|
A -----------------------------------------------------------------|
F ----------------5-5-5-5------------------------------------------|
C 2-3-4-5-6-7-8-9-5-5-5-5--Into the chorus-------------------------|
G 2---------------3-3-3-3------------------------------------------|
D 0-1-2-3-4-5-6-7--------------------------------------------------|

Ending

D -------|
A -------|
F --4----|
C 5-4----|
G 5-2----|
D 3------|

Tap to rate this tab
 
# A B C D E F G H I J K L M N O P Q R S T U V W X Y Z