Song name
# A B C D E F G H I J K L M N O P Q R S T U V W X Y Z

Bayside - They Looked Like Strong Hands tab

Everyone says that the tuning of this song is Drop D but i think it sounds better a 
half-step down (Eb Ab Db Gb Bb eb) sounds fine either way. Hope you enjoy the song.

intro:
Eb|------------------------------------------------------------------------|
Bb|------------------------------------------------------------------------|
Gb|------------6^p6--7-6-4-------------------------------------------------|
Db|------4---4------------7-5-4------------------4h5p4---------------------|
Ab|--2-5---5---------------------2-5-7^p7-5--7-5---------------------------|
Db|------------------------------------------------------------------------|

Eb|------------------------------------------------------------------------|
Bb|------------------------------------------------------------------------|
Gb|------------6^p6--7-6-4-------------------------------------------------|
Db|------4---4------------7-5-4------------------4h5p4---4-----------------|
Ab|--2-5---5---------------------2-5-7^p7-5--7-5--------7---5--------------|
Db|------------------------------------------------------------------------|

On the 6^p6 what you do is you hit the the G string on the 6th fret bend it then 
pull-off of it.

You do the same with the A string and 7th fret.

On the 4h5p4 you hit the D string then hammer on to the 5th fret then pull-off of the 
4th fret.
Tap to rate this tab
 
# A B C D E F G H I J K L M N O P Q R S T U V W X Y Z