Bayside - Theyre Not Horses Theyre Unicorns tab

Artist: Bayside
Album: The Walking Wounded
Track: They’re Not Horses, They’re Unicorns
Guitar 1: Rhythm, D standard/1 step down (DGCFAD)
Guitar 2: Lead, D standard/1 step down (DGCFAD)
NB: notes in brackets are optional; notes with ‘.’ below are palm muted; where 
appropriate t=10, e=11, w=12

Guitar 1

Intro
D|--------------------------------|--------------------------------|
A|--------------------------------|--------------------------------|
F|-----9--9--9--9---------9---8-9-|-----9--9--9--9---------9---8-9-|
C|-2---9--9--9--9----2----9---8-9-|-2---9--9--9--9----2----9---8-9-|
G|-2---7--7--7--7----2----7---6-7-|-2---7--7--7--7----2----7---6-7-|
D|-0-----------------0------------|-0-----------------0------------|

D|--------------------------------|--------------------------------|
A|--------------------------------|--------------------------------|
F|-----9--9--9--9---------9---8-9-|-----9--9--9--9---------9---8-9-|
C|-2---9--9--9--9----2----9---8-9-|-2---9--9--9--9----2----9---8-9-|
G|-2---7--7--7--7----2----7---6-7-|-2---7--7--7--7----2----7---6-7-|
D|-0-----------------0------------|-0-----------------0------------|

Verse 1
D|--------------------------------|--------------------------------|
A|--------------------------------|--------------------------------|
F|-5------------------------------|--------------------------------|
C|-5------------------------------|--------------------------------|
G|-3------------------------------|--------------------------------|
D|--------------------------------|--------------------------------|

D|--------------------------------|--------------------------------|
A|--------------------------------|--------------------------------|
F|-----9--9--9--9---------9---8-9-|-----9--9--9--9---------9---8-9-|
C|-2---9--9--9--9----2----9---8-9-|-2---9--9--9--9----2----9---8-9-|
G|-2---7--7--7--7----2----7---6-7-|-2---7--7--7--7----2----7---6-7-|
D|-0-----------------0------------|-0-----------------0------------|

D|--------------------------------|--------------------------------|
A|--------------------------------|--------------------------------|
F|-5------------------------------|-5------------------------\-----|
C|-5------------------------------|-5------------------------\-----|
G|-3------------------------------|-3------------------------\-----|
D|--------------------------------|--------------------------------|

D|--------------------------------|--------------------------------|
A|--------------------------------|--------------------------------|
F|-----9--9--9--9---------9---8-9-|-----9--9--9--9---------9---8-9-|
C|-2---9--9--9--9----2----9---8-9-|-2---9--9--9--9----2----9---8-9-|
G|-2---7--7--7--7----2----7---6-7-|-2---7--7--7--7----2----7---6-7-|
D|-0-----------------0------------|-0-----------------0------------|

Pre chorus 1
D|--------------------------------|--------------------------------|
A|--------------------------------|--------------------------------|
F|-5--5---5-7--5----------9-8--4--|--------------------------------|
C|-5--5---5-7--5---7--7---9-8--4--|-2-2-2-2-2-2-2-2-2-2-2-2-2-2-2-2|
G|-3--3---3-5--3---7--7---7-6--2--|-2-2-2-2-2-2-2-2-2-2-2-2-2-2-2-2|
D|-----------------5--5-----------|-0-0-0-0-0-0-0-0-0-0-0-0-0-0-0-0|
                                    . . . . . . . . . . . . . . . .
D|--------------------------------|--------------------------------|
A|--------------------------------|--------------------------------|
F|-5--5---5-7--5----------9-8--4--|--------------------------------|
C|-5--5---5-7--5---7--7---9-8--4--|-2-2-2-2-2-2-2-2-2-2-2-2-2---2--|
G|-3--3---3-5--3---7--7---7-6--2--|-2-2-2-2-2-2-2-2-2-2-2-2-2---2--|
D|-----------------5--5-----------|-0-0-0-0-0-0-0-0-0-0-0-0-0---0--|
                                    . . . . . . . . . . . .  
Chorus
D|--------------------------------|--------------------------------|
A|--------------------------------|--------------------------------|
F|-9-9-9-9-9-9-9-9-9-9-9-9-9-9-9-9|--------------------------------|
C|-9-9-9-9-9-9-9-9-9-9-9-9-9-9-9-9|-7-7-7-7-7-7-7-7-7-7-7-7-7-7-7-7|
G|-7-7-7-7-7-7-7-7-7-7-7-7-7-7-7-7|-7-7-7-7-7-7-7-7-7-7-7-7-7-7-7-7|
D|--------------------------------|-5-5-5-5-5-5-5-5-5-5-5-5-5-5-5-5|

D|--------------------------------|--------------------------------|
A|--------------------------------|--------------------------------|
F|--------------------------------|--------------------------------|
C|-t-t-t-t-t-t-t-t-t-t-t-t-t-t-t-t|-t-t-t-t-t-t-t-t-t-t-t-t-t-t-t-t| 
G|-t-t-t-t-t-t-t-t-t-t-t-t-t-t-t-t|-t-t-t-t-t-t-t-t-t-t-t-t-t-t-t-t|
D|-8-8-8-8-8-8-8-8-8-8-8-8-8-8-8-8|-8-8-8-8-8-8-8-8-8-8-8-8-8-8-8-8|
                                    
D|--------------------------------|--------------------------------|
A|--------------------------------|--------------------------------|
F|-9-9-9-9-9-9-9-9-9-9-9-9-9-9-9-9|--------------------------------|
C|-9-9-9-9-9-9-9-9-9-9-9-9-9-9-9-9|-7-7-7-7-7-7-7-7-7-7-7-7-7-7-7-7|
G|-7-7-7-7-7-7-7-7-7-7-7-7-7-7-7-7|-7-7-7-7-7-7-7-7-7-7-7-7-7-7-7-7|
D|--------------------------------|-5-5-5-5-5-5-5-5-5-5-5-5-5-5-5-5|

D|--------------------------------|--------------------------------|
A|--------------------------------|--------------------------------|
F|-8-8-8-8-8-8-8-8-8-8-8-8-8-8-8-8|-8-8-8-8-8-8-8-8-8-8-8-8-8-8-8-8|
C|-8-8-8-8-8-8-8-8-8-8-8-8-8-8-8-8|-8-8-8-8-8-8-8-8-8-8-8-8-8-8-8-8|
G|-6-6-6-6-6-6-6-6-6-6-6-6-6-6-6-6|-6-6-6-6-6-6-6-6-6-6-6-6-6-6-6-6|
D|--------------------------------|--------------------------------|

D|--------------------------------|--------------------------------|
A|--------------------------------|--------------------------------|
F|-9-9-9-9-9-9-9-9-9-9-9-9-9-9-9-9|--------------------------------|
C|-9-9-9-9-9-9-9-9-9-9-9-9-9-9-9-9|-7-7-7-7-7-7-7-7-7-7-7-7-7-7-7-7|
G|-7-7-7-7-7-7-7-7-7-7-7-7-7-7-7-7|-7-7-7-7-7-7-7-7-7-7-7-7-7-7-7-7|
D|--------------------------------|-5-5-5-5-5-5-5-5-5-5-5-5-5-5-5-5|

D|--------------------------------|--------------------------------|
A|--------------------------------|--------------------------------|
F|--------------------------------|--------------------------------|
C|-t-t-t-t-t-t-t-t-t-t-t-t-t-t-t-t|-t-t-t-t-t-t-t-t-t-t-t-t-t-t-t-t| 
G|-t-t-t-t-t-t-t-t-t-t-t-t-t-t-t-t|-t-t-t-t-t-t-t-t-t-t-t-t-t-t-t-t|
D|-8-8-8-8-8-8-8-8-8-8-8-8-8-8-8-8|-8-8-8-8-8-8-8-8-8-8-8-8-8-8-8-8|
                                    
D|--------------------------------|--------------------------------|
A|--------------------------------|--------------------------------|
F|-9-9-9-9-9-9-9-9-9-9-9-9-9-9-9-9|--------------------------------|
C|-9-9-9-9-9-9-9-9-9-9-9-9-9-9-9-9|-7-7-7-7-7-7-7-7-7-7-7-7-7-7-7-7|
G|-7-7-7-7-7-7-7-7-7-7-7-7-7-7-7-7|-7-7-7-7-7-7-7-7-7-7-7-7-7-7-7-7|
D|--------------------------------|-5-5-5-5-5-5-5-5-5-5-5-5-5-5-5-5|

D|--------------------------------|--------------------------------|
A|--------------------------------|--------------------------------|
F|-8-8-8-8-8-8-8-8-8-8-8-8-8-8-8-8|-8-8-8-8-8-8-8-8-8-8-8-8-8-8-8-8|
C|-8-8-8-8-8-8-8-8-8-8-8-8-8-8-8-8|-8-8-8-8-8-8-8-8-8-8-8-8-8-8-8-8|
G|-6-6-6-6-6-6-6-6-6-6-6-6-6-6-6-6|-6-6-6-6-6-6-6-6-6-6-6-6-6-6-6-6|
D|--------------------------------|--------------------------------|

D|--------------------------------|--------------------------------|
A|--------------------------------|--------------------------------|
F|-9-------------8----------------|-7---------------6--------------|
C|-9-------------8----------------|-7---------------6--------------|
G|-7-------------6----------------|-5---------------4--------------|
D|--------------------------------|--------------------------------|

D|--------------------------------|--------------------------------|
A|--------------------------------|--------------------------------|
F|-5------------------------------|-5-------4-------2--------------|
C|-5------------------------------|-5-------4-------2-------5------|
G|-3------------------------------|-3-------2-------0-------5------|
D|--------------------------------|-------------------------3------|

Pre verse 2 
D|--------------------------------|--------------------------------|
A|--------------------------------|--------------------------------|
F|-----9--9--9--9---------9---8-9-|-----9--9--9--9---------9---8-9-|
C|-2---9--9--9--9----2----9---8-9-|-2---9--9--9--9----2----9---8-9-|
G|-2---7--7--7--7----2----7---6-7-|-2---7--7--7--7----2----7---6-7-|
D|-0-----------------0------------|-0-----------------0------------|

D|--------------------------------|--------------------------------|
A|--------------------------------|--------------------------------|
F|-----9--9--9--9---------9---8-9-|-----9--9--9--9---------9---8-9-|
C|-2---9--9--9--9----2----9---8-9-|-2---9--9--9--9----2----9---8-9-|
G|-2---7--7--7--7----2----7---6-7-|-2---7--7--7--7----2----7---6-7-|
D|-0-----------------0------------|-0-----------------0------------|

Verse 2
D|--------------------------------|--------------------------------|
A|--------------------------------|--------------------------------|
F|-5------------------------------|--------------------------------|
C|-5------------------------------|--------------------------------|
G|-3------------------------------|--------------------------------|
D|--------------------------------|--------------------------------|

D|--------------------------------|--------------------------------|
A|--------------------------------|--------------------------------|
F|-----9--9--9--9---------9---8-9-|-----9--9--9--9---------9---8-9-|
C|-2---9--9--9--9----2----9---8-9-|-2---9--9--9--9----2----9---8-9-|
G|-2---7--7--7--7----2----7---6-7-|-2---7--7--7--7----2----7---6-7-|
D|-0-----------------0------------|-0-----------------0------------|

D|--------------------------------|--------------------------------|
A|--------------------------------|--------------------------------|
F|-5------------------------------|-5------------------------\-----|
C|-5------------------------------|-5------------------------\-----|
G|-3------------------------------|-3------------------------\-----|
D|--------------------------------|--------------------------------|

D|--------------------------------|--------------------------------|
A|--------------------------------|--------------------------------|
F|-----9--9--9--9---------9---8-9-|-----9--9--9--9---------9---8-9-|
C|-2---9--9--9--9----2----9---8-9-|-2---9--9--9--9----2----9---8-9-|
G|-2---7--7--7--7----2----7---6-7-|-2---7--7--7--7----2----7---6-7-|
D|-0-----------------0------------|-0-----------------0------------|

Pre chorus 2
D|--------------------------------|--------------------------------|
A|--------------------------------|--------------------------------|
F|-5--5---5-7--5----------9-8--4--|--------------------------------|
C|-5--5---5-7--5---7--7---9-8--4--|-2-2-2-2-2-2-2-2-2-2-2-2-2-2-2-2|
G|-3--3---3-5--3---7--7---7-6--2--|-2-2-2-2-2-2-2-2-2-2-2-2-2-2-2-2|
D|-----------------5--5-----------|-0-0-0-0-0-0-0-0-0-0-0-0-0-0-0-0|
                                    . . . . . . . . . . . . . . . .
D|--------------------------------|--------------------------------|
A|--------------------------------|--------------------------------|
F|-5--5---5-7--5----------9-8--4--|--------------------------------|
C|-5--5---5-7--5---7--7---9-8--4--|-2-2-2-2-2-2-2-2-2-2-2-2-2-2-2-2|
G|-3--3---3-5--3---7--7---7-6--2--|-2-2-2-2-2-2-2-2-2-2-2-2-2-2-2-2|
D|-----------------5--5-----------|-0-0-0-0-0-0-0-0-0-0-0-0-0-0-0-0|
                                    . . . . . . . . . . . . . . . .
Chorus
D|--------------------------------|--------------------------------|
A|--------------------------------|--------------------------------|
F|-9-9-9-9-9-9-9-9-9-9-9-9-9-9-9-9|--------------------------------|
C|-9-9-9-9-9-9-9-9-9-9-9-9-9-9-9-9|-7-7-7-7-7-7-7-7-7-7-7-7-7-7-7-7|
G|-7-7-7-7-7-7-7-7-7-7-7-7-7-7-7-7|-7-7-7-7-7-7-7-7-7-7-7-7-7-7-7-7|
D|--------------------------------|-5-5-5-5-5-5-5-5-5-5-5-5-5-5-5-5|

D|--------------------------------|--------------------------------|
A|--------------------------------|--------------------------------|
F|--------------------------------|--------------------------------|
C|-t-t-t-t-t-t-t-t-t-t-t-t-t-t-t-t|-t-t-t-t-t-t-t-t-t-t-t-t-t-t-t-t| 
G|-t-t-t-t-t-t-t-t-t-t-t-t-t-t-t-t|-t-t-t-t-t-t-t-t-t-t-t-t-t-t-t-t|
D|-8-8-8-8-8-8-8-8-8-8-8-8-8-8-8-8|-8-8-8-8-8-8-8-8-8-8-8-8-8-8-8-8|
                                    
D|--------------------------------|--------------------------------|
A|--------------------------------|--------------------------------|
F|-9-9-9-9-9-9-9-9-9-9-9-9-9-9-9-9|--------------------------------|
C|-9-9-9-9-9-9-9-9-9-9-9-9-9-9-9-9|-7-7-7-7-7-7-7-7-7-7-7-7-7-7-7-7|
G|-7-7-7-7-7-7-7-7-7-7-7-7-7-7-7-7|-7-7-7-7-7-7-7-7-7-7-7-7-7-7-7-7|
D|--------------------------------|-5-5-5-5-5-5-5-5-5-5-5-5-5-5-5-5|

D|--------------------------------|--------------------------------|
A|--------------------------------|--------------------------------|
F|-8-8-8-8-8-8-8-8-8-8-8-8-8-8-8-8|-8-8-8-8-8-8-8-8-8-8-8-8-8-8-8-8|
C|-8-8-8-8-8-8-8-8-8-8-8-8-8-8-8-8|-8-8-8-8-8-8-8-8-8-8-8-8-8-8-8-8|
G|-6-6-6-6-6-6-6-6-6-6-6-6-6-6-6-6|-6-6-6-6-6-6-6-6-6-6-6-6-6-6-6-6|
D|--------------------------------|--------------------------------|

D|--------------------------------|--------------------------------|
A|--------------------------------|--------------------------------|
F|-9-9-9-9-9-9-9-9-9-9-9-9-9-9-9-9|--------------------------------|
C|-9-9-9-9-9-9-9-9-9-9-9-9-9-9-9-9|-7-7-7-7-7-7-7-7-7-7-7-7-7-7-7-7|
G|-7-7-7-7-7-7-7-7-7-7-7-7-7-7-7-7|-7-7-7-7-7-7-7-7-7-7-7-7-7-7-7-7|
D|--------------------------------|-5-5-5-5-5-5-5-5-5-5-5-5-5-5-5-5|

D|--------------------------------|--------------------------------|
A|--------------------------------|--------------------------------|
F|--------------------------------|--------------------------------|
C|-t-t-t-t-t-t-t-t-t-t-t-t-t-t-t-t|-t-t-t-t-t-t-t-t-t-t-t-t-t-t-t-t| 
G|-t-t-t-t-t-t-t-t-t-t-t-t-t-t-t-t|-t-t-t-t-t-t-t-t-t-t-t-t-t-t-t-t|
D|-8-8-8-8-8-8-8-8-8-8-8-8-8-8-8-8|-8-8-8-8-8-8-8-8-8-8-8-8-8-8-8-8|
                                    
D|--------------------------------|--------------------------------|
A|--------------------------------|--------------------------------|
F|-9-9-9-9-9-9-9-9-9-9-9-9-9-9-9-9|--------------------------------|
C|-9-9-9-9-9-9-9-9-9-9-9-9-9-9-9-9|-7-7-7-7-7-7-7-7-7-7-7-7-7-7-7-7|
G|-7-7-7-7-7-7-7-7-7-7-7-7-7-7-7-7|-7-7-7-7-7-7-7-7-7-7-7-7-7-7-7-7|
D|--------------------------------|-5-5-5-5-5-5-5-5-5-5-5-5-5-5-5-5|

D|--------------------------------|--------------------------------|
A|--------------------------------|--------------------------------|
F|-8-8-8-8-8-8-8-8-8-8-8-8-8-8-8-8|-8-8-8-8-8-8-8-8-8-8-8-8-8-8-8-8|
C|-8-8-8-8-8-8-8-8-8-8-8-8-8-8-8-8|-8-8-8-8-8-8-8-8-8-8-8-8-8-8-8-8|
G|-6-6-6-6-6-6-6-6-6-6-6-6-6-6-6-6|-6-6-6-6-6-6-6-6-6-6-6-6-6-6-6-6|
D|--------------------------------|--------------------------------|

D|--------------------------------|--------------------------------|
A|--------------------------------|--------------------------------|
F|-9-------------8----------------|-7---------------6--------------|
C|-9-------------8----------------|-7---------------6--------------|
G|-7-------------6----------------|-5---------------4--------------|
D|--------------------------------|--------------------------------|

D|--------------------------------|--------------------------------|
A|--------------------------------|--------------------------------|
F|-5------------------------------|-5-------4-------2--------------|
C|-5------------------------------|-5-------4-------2-------5------|
G|-3------------------------------|-3-------2-------0-------5------|
D|--------------------------------|-------------------------3------|

Bridge
D|--------------------------------|--------------------------------|
A|--------------------------------|--------------------------------|
F|-------9---9---9----------------|--------7-/-9---7---7-7-----7-7-|
C|-------9---9---9----------------|--------7-/-9---7---7-7-----7-7-|
G|-------7---7---7-------9-h-11---|9-------5-/-7---5---5-5-----5-5-|
D|-0---0-------0-----0-0----------|----0-0-----------------0-0-----|
   .   .        .     . .              . .                 . .
D|--------------------------------|--------------------------------|
A|--------------------------------|--------------------------------|
F|-------9---9---9----------------|--------7-/-9---7---7-7-----7-7-|
C|-------9---9---9----------------|--------7-/-9---7---7-7-----7-7-|
G|-------7---7---7-------9-h-11---|9-------5-/-7---5---5-5-----5-5-|
D|-0---0-------0-----0-0----------|----0-0-----------------0-0-----|
   .   .        .     . .              . .                 . .
D|--------------------------------|-----------------XXX---XXX---XX-|
A|--------------------------------|-----------------XXX---XXX---XX-|
F|--------------------------------|-----------------XXX---XXX---XX-|
C|-t-9-7-------9-7---------7------|-----------------XXX---XXX---XX-|
G|-------t---------t-9-------t-9-7|-----------------XXX---XXX---XX-|
D|--------------------------------|-----------------XXX---XXX---XX-|
   . . . .     . . . .     . . . .
D|--------------------------------|--------------------------------|
A|--------------------------------|--------------------------------|
F|--------------------------------|--------------------------------|
C|-t-9-7-------9-7---------7------|-----------------2-----------2--|
G|-------t---------t-9-------t-9-7|-----------------2-----------2--|
D|--------------------------------|-----------------0-----------0--|
   . . . .     . . . .     . . . .
End chorus
D|--------------------------------|--------------------------------|
A|--------------------------------|--------------------------------|
F|-9-9-9-9-9-9-9-9-9-9-9-9-9-9-9-9|--------------------------------|
C|-9-9-9-9-9-9-9-9-9-9-9-9-9-9-9-9|-7-7-7-7-7-7-7-7-7-7-7-7-7-7-7-7|
G|-7-7-7-7-7-7-7-7-7-7-7-7-7-7-7-7|-7-7-7-7-7-7-7-7-7-7-7-7-7-7-7-7|
D|--------------------------------|-5-5-5-5-5-5-5-5-5-5-5-5-5-5-5-5|

D|--------------------------------|--------------------------------|
A|--------------------------------|--------------------------------|
F|--------------------------------|--------------------------------|
C|-t-t-t-t-t-t-t-t-t-t-t-t-t-t-t-t|-t-t-t-t-t-t-t-t-t-t-t-t-t-t-t-t| 
G|-t-t-t-t-t-t-t-t-t-t-t-t-t-t-t-t|-t-t-t-t-t-t-t-t-t-t-t-t-t-t-t-t|
D|-8-8-8-8-8-8-8-8-8-8-8-8-8-8-8-8|-8-8-8-8-8-8-8-8-8-8-8-8-8-8-8-8|
                                    
D|--------------------------------|--------------------------------|
A|--------------------------------|--------------------------------|
F|-9-9-9-9-9-9-9-9-9-9-9-9-9-9-9-9|--------------------------------|
C|-9-9-9-9-9-9-9-9-9-9-9-9-9-9-9-9|-7-7-7-7-7-7-7-7-7-7-7-7-7-7-7-7|
G|-7-7-7-7-7-7-7-7-7-7-7-7-7-7-7-7|-7-7-7-7-7-7-7-7-7-7-7-7-7-7-7-7|
D|--------------------------------|-5-5-5-5-5-5-5-5-5-5-5-5-5-5-5-5|

D|--------------------------------|--------------------------------|
A|--------------------------------|--------------------------------|
F|-8-8-8-8-8-8-8-8-8-8-8-8-8-8-8-8|-8-8-8-8-8-8-8-8-8-8-8-8-8-8-8-8|
C|-8-8-8-8-8-8-8-8-8-8-8-8-8-8-8-8|-8-8-8-8-8-8-8-8-8-8-8-8-8-8-8-8|
G|-6-6-6-6-6-6-6-6-6-6-6-6-6-6-6-6|-6-6-6-6-6-6-6-6-6-6-6-6-6-6-6-6|
D|--------------------------------|--------------------------------|

D|--------------------------------|--------------------------------|
A|--------------------------------|--------------------------------|
F|-9-9-9-9-9-9-9-9-9-9-9-9-9-9-9-9|--------------------------------|
C|-9-9-9-9-9-9-9-9-9-9-9-9-9-9-9-9|-7-7-7-7-7-7-7-7-7-7-7-7-7-7-7-7|
G|-7-7-7-7-7-7-7-7-7-7-7-7-7-7-7-7|-7-7-7-7-7-7-7-7-7-7-7-7-7-7-7-7|
D|--------------------------------|-5-5-5-5-5-5-5-5-5-5-5-5-5-5-5-5|

D|--------------------------------|--------------------------------|
A|--------------------------------|--------------------------------|
F|--------------------------------|--------------------------------|
C|-t-t-t-t-t-t-t-t-t-t-t-t-t-t-t-t|-t-t-t-t-t-t-t-t-t-t-t-t-t-t-t-t| 
G|-t-t-t-t-t-t-t-t-t-t-t-t-t-t-t-t|-t-t-t-t-t-t-t-t-t-t-t-t-t-t-t-t|
D|-8-8-8-8-8-8-8-8-8-8-8-8-8-8-8-8|-8-8-8-8-8-8-8-8-8-8-8-8-8-8-8-8|
                                    
D|--------------------------------|--------------------------------|
A|--------------------------------|--------------------------------|
F|-9-9-9-9-9-9-9-9-9-9-9-9-9-9-9-9|--------------------------------|
C|-9-9-9-9-9-9-9-9-9-9-9-9-9-9-9-9|-7-7-7-7-7-7-7-7-7-7-7-7-7-7-7-7|
G|-7-7-7-7-7-7-7-7-7-7-7-7-7-7-7-7|-7-7-7-7-7-7-7-7-7-7-7-7-7-7-7-7|
D|--------------------------------|-5-5-5-5-5-5-5-5-5-5-5-5-5-5-5-5|

D|--------------------------------|--------------------------------|
A|--------------------------------|--------------------------------|
F|-8-8-8-8-8-8-8-8-8-8-8-8-8-8-8-8|-8-8-8-8-8-8-8-8-8-8-8-8-8-8-8-8|
C|-8-8-8-8-8-8-8-8-8-8-8-8-8-8-8-8|-8-8-8-8-8-8-8-8-8-8-8-8-8-8-8-8|
G|-6-6-6-6-6-6-6-6-6-6-6-6-6-6-6-6|-6-6-6-6-6-6-6-6-6-6-6-6-6-6-6-6|
D|--------------------------------|--------------------------------|

D|--------------------------------|--------------------------------|
A|--------------------------------|--------------------------------|
F|-9-------------8----------------|-7---------------6--------------|
C|-9-------------8----------------|-7---------------6--------------|
G|-7-------------6----------------|-5---------------4--------------|
D|--------------------------------|--------------------------------|

D|--------------------------------|--------------------------------|
A|--------------------------------|--------------------------------|
F|-5------------------------------|--------------------------------|
C|-5------------------------------|--------------------------------|
G|-3------------------------------|--------------------------------|
D|--------------------------------|--------------------------------|



Guitar 2

Intro
D|--------------------------------|--------------------------------|
A|-----------------------8--------|-----------------------8--------|
F|-9---12-12-12-12---9----(9)8-9--|-9---12-12-12-12---9----(9)8-9--|
C|-9---12-12-10-12---9------------|-9---12-12-10-12---9------------|
G|-7---10-10-10-10---7------------|-7---10-10-10-10---7------------|
D|-0-----------------0------------|-0-----------------0------------|

D|--------------------------------|--------------------------------|
A|-8b9-8-8-8----------------------|--------------------------------|
F|-----------9-7-9-7--------------|-9---12-12-12-12---9---12--8-9--|
C|-------------------9-7----------|-9---12-12-12-12---9---12--8-9--|
G|-----------------------6~~~~~---|-7---10-10-10-10---7---10--6-7--|
D|--------------------------------|-0-----------------0------------|

Verse 1
D|--------------------------------|--------------------------------|
A|--------------------------------|--------------------------------|
F|-5------------------------------|--------------------------------|
C|-5------------------------------|--------------------------------|
G|-3------------------------------|--------------------------------|
D|--------------------------------|--------------------------------|

D|--------------------------------|--------------------------------|
A|-----------------------8--------|-----------------------8--------|
F|-9---12-12-12-12---9----(9)8-9--|-9---12-12-12-12---9----(9)8-9--|
C|-9---12-12-10-12---9------------|-9---12-12-10-12---9------------|
G|-7---10-10-10-10---7------------|-7---10-10-10-10---7------------|
D|-0-----------------0------------|-0-----------------0------------|

D|--------------------------------|--------------------------------|
A|--------------------------------|--------------------------------|
F|-5------------------------------|-5------------------------\-----|
C|-5------------------------------|-5------------------------\-----|
G|-3------------------------------|-3------------------------\-----|
D|--------------------------------|--------------------------------|

D|--------------------------------|--------------------------------|
A|-----------------------8--------|-----------------------8--------|
F|-9---12-12-12-12---9----(9)8-9--|-9---12-12-12-12---9----(9)8-9--|
C|-9---12-12-10-12---9------------|-9---12-12-10-12---9------------|
G|-7---10-10-10-10---7------------|-7---10-10-10-10---7------------|
D|-0-----------------0------------|-0-----------------0------------|

Pre chorus 1
D|--------------------------------|--------------------------------|
A|--------------------------------|--------------------------------|
F|-5--5---5-7--5----------9-8--4--|-9---9---9---9---9---9---9---9--|
C|-5--5---5-7--5---7--7---9-8--4--|-9---9---9---9---9---9---9---9--|
G|-3--3---3-5--3---7--7---7-6--2--|-7---7---7---7---7---7---7---7--|
D|-----------------5--5-----------|--------------------------------|
                                    
D|--------------------------------|--------------------------------|
A|--------------------------------|--------------------------------|
F|-5--5---5-7--5----------9-8--4--|-9---9---9---9---9---9---9---9--|
C|-5--5---5-7--5---7--7---9-8--4--|-9---9---9---9---9---9---9---9--|
G|-3--3---3-5--3---7--7---7-6--2--|-7---7---7---7---7---7---7---7--|
D|-----------------5--5-----------|--------------------------------|
                                    
Chorus
D|--------------------------------|--------------------------------|
A|--------------------------------|--------------------------------|
F|-9-9-9-9-9-9-9-9-9-9-9-9-9-9-9-9|--------------------------------|
C|-9-9-9-9-9-9-9-9-9-9-9-9-9-9-9-9|-7-7-7-7-7-7-7-7-7-7-7-7-7-7-7-7|
G|-7-7-7-7-7-7-7-7-7-7-7-7-7-7-7-7|-7-7-7-7-7-7-7-7-7-7-7-7-7-7-7-7|
D|--------------------------------|-5-5-5-5-5-5-5-5-5-5-5-5-5-5-5-5|

D|--------------------------------|--------------------------------|
A|--------------------------------|--------------------------------|
F|--------------------------------|--------------------------------|
C|-t-t-t-t-t-t-t-t-t-t-t-t-t-t-t-t|-t-t-t-t-9-9-9-9-7-7-7-7--------| 
G|-t-t-t-t-t-t-t-t-t-t-t-t-t-t-t-t|-------------------------t-t-t-t|
D|-8-8-8-8-8-8-8-8-8-8-8-8-8-8-8-8|--------------------------------|
                                    . . . . . . . . . . . . . . . .
D|--------------------------------|--------------------------------|
A|--------------------------------|--------------------------------|
F|-9-9-9-9-9-9-9-9-9-9-9-9-9-9-9-9|--------------------------------|
C|-9-9-9-9-9-9-9-9-9-9-9-9-9-9-9-9|-7-7-7-7-7-7-7-7-7-7-7-7-7-7-7-7|
G|-7-7-7-7-7-7-7-7-7-7-7-7-7-7-7-7|-7-7-7-7-7-7-7-7-7-7-7-7-7-7-7-7|
D|--------------------------------|-5-5-5-5-5-5-5-5-5-5-5-5-5-5-5-5|

D|--------------------------------|--------------------------------|
A|--------------------------------|--------------------------------|
F|-8-8-8-8-8-8-8-8-8-8-8-8-8-8-8-8|-9-------9---11--12--11--9---8~-|
C|-8-8-8-8-8-8-8-8-8-8-8-8-8-8-8-8|-----10-------------------------|
G|-6-6-6-6-6-6-6-6-6-6-6-6-6-6-6-6|--------------------------------|
D|--------------------------------|--------------------------------|

D|--------------------------------|--------------------------------|
A|--------------------------------|--------------------------------|
F|-9-9-9-9-9-9-9-9-9-9-9-9-9-9-9-9|--------------------------------|
C|-9-9-9-9-9-9-9-9-9-9-9-9-9-9-9-9|-7-7-7-7-7-7-7-7-7-7-7-7-7-7-7-7|
G|-7-7-7-7-7-7-7-7-7-7-7-7-7-7-7-7|-7-7-7-7-7-7-7-7-7-7-7-7-7-7-7-7|
D|--------------------------------|-5-5-5-5-5-5-5-5-5-5-5-5-5-5-5-5|

D|--------------------------------|--------------------------------|
A|--------------------------------|--------------------------------|
F|--------------------------------|--------------------------------|
C|-t-t-t-t-t-t-t-t-t-t-t-t-t-t-t-t|-t-t-t-t-9-9-9-9-7-7-7-7--------| 
G|-t-t-t-t-t-t-t-t-t-t-t-t-t-t-t-t|-------------------------t-t-t-t|
D|-8-8-8-8-8-8-8-8-8-8-8-8-8-8-8-8|--------------------------------|
                                    . . . . . . . . . . . . . . . .
D|--------------------------------|--------------------------------|
A|--------------------------------|--------------------------------|
F|-9-9-9-9-9-9-9-9-9-9-9-9-9-9-9-9|--------------------------------|
C|-9-9-9-9-9-9-9-9-9-9-9-9-9-9-9-9|-7-7-7-7-7-7-7-7-7-7-7-7-7-7-7-7|
G|-7-7-7-7-7-7-7-7-7-7-7-7-7-7-7-7|-7-7-7-7-7-7-7-7-7-7-7-7-7-7-7-7|
D|--------------------------------|-5-5-5-5-5-5-5-5-5-5-5-5-5-5-5-5|

D|--------------------------------|--------------------------------|
A|--------------------------------|-----------------12-------------|
F|-8-8-8-8-8-8-8-8-8-8-8-8-8-8-8-8|-9-------9---12------12--9---8~-|
C|-8-8-8-8-8-8-8-8-8-8-8-8-8-8-8-8|-----10-------------------------|
G|-6-6-6-6-6-6-6-6-6-6-6-6-6-6-6-6|--------------------------------|
D|--------------------------------|--------------------------------|

D|--------------------------------|--------------------------------|
A|--------------------------------|--------------------------------|
F|-9-------------8----------------|-7---------------6--------------|
C|--------------------------------|--------------------------------|
G|--------------------------------|--------------------------------|
D|--------------------------------|--------------------------------|

D|--------------------------------|--------------------------------|
A|--------------------------------|--------------------------------|
F|-5------------------------------|-5-------4----------------------|
C|--------------------------------|-----------------7-------5------|
G|--------------------------------|--------------------------------|
D|--------------------------------|--------------------------------|

Pre verse 2
D|--------------------------------|--------------------------------|
A|-----------------------8--------|-----------------------8--------|
F|-9---12-12-12-12---9----(9)8-9--|-9---12-12-12-12---9----(9)8-9--|
C|-9---12-12-10-12---9------------|-9---12-12-10-12---9------------|
G|-7---10-10-10-10---7------------|-7---10-10-10-10---7------------|
D|-0-----------------0------------|-0-----------------0------------|

D|--------------------------------|--------------------------------|
A|-8b9-8-8-8----------------------|-----------------------8--------|
F|-----------9-7-9-7--------------|-9---12-12-12-12---9----(9)8-9--|
C|-------------------9-7----------|-9---12-12-12-12---9------------|
G|-----------------------6~~~~~---|-7---10-10-10-10---7------------|
D|--------------------------------|-0-----------------0------------|

Verse 2
D|--------------------------------|--------------------------------|
A|--------------------------------|--------------------------------|
F|-5------------------------------|--------------------------------|
C|-5------------------------------|--------------------------------|
G|-3------------------------------|--------------------------------|
D|--------------------------------|--------------------------------|

D|--------------------------------|--------------------------------|
A|-----------------------8--------|-----------------------8--------|
F|-9---12-12-12-12---9----(9)8-9--|-9---12-12-12-12---9----(9)8-9--|
C|-9---12-12-10-12---9------------|-9---12-12-10-12---9------------|
G|-7---10-10-10-10---7------------|-7---10-10-10-10---7------------|
D|-0-----------------0------------|-0-----------------0------------|

D|--------------------------------|--------------------------------|
A|--------------------------------|--------------------------------|
F|-5------------------------------|-5------------------------\-----|
C|-5------------------------------|-5------------------------\-----|
G|-3------------------------------|-3------------------------\-----|
D|--------------------------------|--------------------------------|

D|--------------------------------|--------------------------------|
A|-----------------------8--------|-----------------------8--------|
F|-9---12-12-12-12---9----(9)8-9--|-9---12-12-12-12---9----(9)8-9--|
C|-9---12-12-10-12---9------------|-9---12-12-10-12---9------------|
G|-7---10-10-10-10---7------------|-7---10-10-10-10---7------------|
D|-0-----------------0------------|-0-----------------0------------|

Pre chorus 2
D|--------------------------------|--------------------------------|
A|--------------------------------|--------------------------------|
F|-5--5---5-7--5----------9-8--4--|-9---9---9---9---9---9---9---9--|
C|-5--5---5-7--5---7--7---9-8--4--|-9---9---9---9---9---9---9---9--|
G|-3--3---3-5--3---7--7---7-6--2--|-7---7---7---7---7---7---7---7--|
D|-----------------5--5-----------|--------------------------------|
                                    
D|--------------------------------|--------------------------------|
A|--------------------------------|--------------------------------|
F|-5--5---5-7--5----------9-8--4--|-9---9---9---9---9---9---9---9--|
C|-5--5---5-7--5---7--7---9-8--4--|-9---9---9---9---9---9---9---9--|
G|-3--3---3-5--3---7--7---7-6--2--|-7---7---7---7---7---7---7---7--|
D|-----------------5--5-----------|--------------------------------|
 
D|--------------------------------|--------------------------------|
A|--------------------------------|--------------------------------|
F|-9-9-9-9-9-9-9-9-9-9-9-9-9-9-9-9|--------------------------------|
C|-9-9-9-9-9-9-9-9-9-9-9-9-9-9-9-9|-7-7-7-7-7-7-7-7-7-7-7-7-7-7-7-7|
G|-7-7-7-7-7-7-7-7-7-7-7-7-7-7-7-7|-7-7-7-7-7-7-7-7-7-7-7-7-7-7-7-7|
D|--------------------------------|-5-5-5-5-5-5-5-5-5-5-5-5-5-5-5-5|

D|--------------------------------|--------------------------------|
A|--------------------------------|--------------------------------|
F|--------------------------------|--------------------------------|
C|-t-t-t-t-t-t-t-t-t-t-t-t-t-t-t-t|-t-t-t-t-9-9-9-9-7-7-7-7--------| 
G|-t-t-t-t-t-t-t-t-t-t-t-t-t-t-t-t|-------------------------t-t-t-t|
D|-8-8-8-8-8-8-8-8-8-8-8-8-8-8-8-8|--------------------------------|
                                    . . . . . . . . . . . . . . . .
D|--------------------------------|--------------------------------|
A|--------------------------------|--------------------------------|
F|-9-9-9-9-9-9-9-9-9-9-9-9-9-9-9-9|--------------------------------|
C|-9-9-9-9-9-9-9-9-9-9-9-9-9-9-9-9|-7-7-7-7-7-7-7-7-7-7-7-7-7-7-7-7|
G|-7-7-7-7-7-7-7-7-7-7-7-7-7-7-7-7|-7-7-7-7-7-7-7-7-7-7-7-7-7-7-7-7|
D|--------------------------------|-5-5-5-5-5-5-5-5-5-5-5-5-5-5-5-5|

D|--------------------------------|--------------------------------|
A|--------------------------------|--------------------------------|
F|-8-8-8-8-8-8-8-8-8-8-8-8-8-8-8-8|-9-------9---11--12--11--9---8~-|
C|-8-8-8-8-8-8-8-8-8-8-8-8-8-8-8-8|-----10-------------------------|
G|-6-6-6-6-6-6-6-6-6-6-6-6-6-6-6-6|--------------------------------|
D|--------------------------------|--------------------------------|

D|--------------------------------|--------------------------------|
A|--------------------------------|--------------------------------|
F|-9-9-9-9-9-9-9-9-9-9-9-9-9-9-9-9|--------------------------------|
C|-9-9-9-9-9-9-9-9-9-9-9-9-9-9-9-9|-7-7-7-7-7-7-7-7-7-7-7-7-7-7-7-7|
G|-7-7-7-7-7-7-7-7-7-7-7-7-7-7-7-7|-7-7-7-7-7-7-7-7-7-7-7-7-7-7-7-7|
D|--------------------------------|-5-5-5-5-5-5-5-5-5-5-5-5-5-5-5-5|

D|--------------------------------|--------------------------------|
A|--------------------------------|--------------------------------|
F|--------------------------------|--------------------------------|
C|-t-t-t-t-t-t-t-t-t-t-t-t-t-t-t-t|-t-t-t-t-9-9-9-9-7-7-7-7--------| 
G|-t-t-t-t-t-t-t-t-t-t-t-t-t-t-t-t|-------------------------t-t-t-t|
D|-8-8-8-8-8-8-8-8-8-8-8-8-8-8-8-8|--------------------------------|
                                    . . . . . . . . . . . . . . . .
D|--------------------------------|--------------------------------|
A|--------------------------------|--------------------------------|
F|-9-9-9-9-9-9-9-9-9-9-9-9-9-9-9-9|--------------------------------|
C|-9-9-9-9-9-9-9-9-9-9-9-9-9-9-9-9|-7-7-7-7-7-7-7-7-7-7-7-7-7-7-7-7|
G|-7-7-7-7-7-7-7-7-7-7-7-7-7-7-7-7|-7-7-7-7-7-7-7-7-7-7-7-7-7-7-7-7|
D|--------------------------------|-5-5-5-5-5-5-5-5-5-5-5-5-5-5-5-5|

D|--------------------------------|--------------------------------|
A|--------------------------------|-----------------12-------------|
F|-8-8-8-8-8-8-8-8-8-8-8-8-8-8-8-8|-9-------9---12------12--9---8~-|
C|-8-8-8-8-8-8-8-8-8-8-8-8-8-8-8-8|-----10-------------------------|
G|-6-6-6-6-6-6-6-6-6-6-6-6-6-6-6-6|--------------------------------|
D|--------------------------------|--------------------------------|

D|--------------------------------|--------------------------------|
A|--------------------------------|--------------------------------|
F|-9-------------8----------------|-7---------------6--------------|
C|--------------------------------|--------------------------------|
G|--------------------------------|--------------------------------|
D|--------------------------------|--------------------------------|

D|--------------------------------|--------------------------------|
A|--------------------------------|--------------------------------|
F|-5------------------------------|-5-------4----------------------|
C|--------------------------------|-----------------7-------5------|
G|--------------------------------|--------------------------------|
D|--------------------------------|--------------------------------|

Bridge
D|--------------------------------|---------------------------e*~--|
A|--------------------------------|-----------------------wt-------|
F|-------9---9---9----------------|--------7-/-9---7---we9--we-----|
C|-------9---9---9----------------|--------7-/-9---7---------------|
G|-------7---7---7-------9-h-11---|9-------5-/-7---5---------------|
D|-0---0-------0-----0-0----------|----0-0-------------------------|
   .   .        .     . .              . .                 
D|--------------------------------|--------------------------------|
A|--------------------------------|--------------------------------|
F|-------9---9---9----------------|--------7-/-9---7---7-7-----7-7-|
C|-------9---9---9----------------|--------7-/-9---7---7-7-----7-7-|
G|-------7---7---7-------9-h-11---|9-------5-/-7---5---5-5-----5-5-|
D|-0---0-------0-----0-0----------|----0-0-----------------0-0-----|
   .   .        .     . .              . .                 . .
D|--------------------------------|-----------------XXX---XXX---XX-|
A|--------------------------------|-----------------XXX---XXX---XX-|
F|--------------------------------|-----------------XXX---XXX---XX-|
C|-t-9-7-------9-7---------7------|-----------------XXX---XXX---XX-|
G|-------t---------t-9-------t-9-7|-----------------XXX---XXX---XX-|
D|--------------------------------|-----------------XXX---XXX---XX-|
   . . . .     . . . .     . . . .
D|--------------------------------|--------------------------------|
A|--------------------------------|--------------------------------|
F|--------------------------------|-----------------9-----------9--|
C|-t-9-7-------9-7---------7------|-----------------9-----------9--|
G|-------t---------t-9-------t-9-7|-----------------7-----------7--|
D|--------------------------------|--------------------------------|

End Chorus
D|--------------------------------|--------------------------------|
A|--------------------------------|--------------------------------|
F|-9-9-9-9-9-9-9-9-9-9-9-9-9-9-9-9|--------------------------------|
C|-9-9-9-9-9-9-9-9-9-9-9-9-9-9-9-9|-7-7-7-7-7-7-7-7-7-7-7-7-7-7-7-7|
G|-7-7-7-7-7-7-7-7-7-7-7-7-7-7-7-7|-7-7-7-7-7-7-7-7-7-7-7-7-7-7-7-7|
D|--------------------------------|-5-5-5-5-5-5-5-5-5-5-5-5-5-5-5-5|

D|--------------------------------|--------------------------------|
A|--------------------------------|--------------------------------|
F|--------------------------------|--------------------------------|
C|-t-t-t-t-t-t-t-t-t-t-t-t-t-t-t-t|-t-t-t-t-9-9-9-9-7-7-7-7--------| 
G|-t-t-t-t-t-t-t-t-t-t-t-t-t-t-t-t|-------------------------t-t-t-t|
D|-8-8-8-8-8-8-8-8-8-8-8-8-8-8-8-8|--------------------------------|
                                    . . . . . . . . . . . . . . . .
D|--------------------------------|--------------------------------|
A|--------------------------------|--------------------------------|
F|-9-9-9-9-9-9-9-9-9-9-9-9-9-9-9-9|--------------------------------|
C|-9-9-9-9-9-9-9-9-9-9-9-9-9-9-9-9|-7-7-7-7-7-7-7-7-7-7-7-7-7-7-7-7|
G|-7-7-7-7-7-7-7-7-7-7-7-7-7-7-7-7|-7-7-7-7-7-7-7-7-7-7-7-7-7-7-7-7|
D|--------------------------------|-5-5-5-5-5-5-5-5-5-5-5-5-5-5-5-5|

D|--------------------------------|--------------------------------|
A|--------------------------------|--------------------------------|
F|-8-8-8-8-8-8-8-8-8-8-8-8-8-8-8-8|-9-------9---11--12--11--9---8~-|
C|-8-8-8-8-8-8-8-8-8-8-8-8-8-8-8-8|-----10-------------------------|
G|-6-6-6-6-6-6-6-6-6-6-6-6-6-6-6-6|--------------------------------|
D|--------------------------------|--------------------------------|

D|--------------------------------|--------------------------------|
A|--------------------------------|--------------------------------|
F|-9-9-9-9-9-9-9-9-9-9-9-9-9-9-9-9|--------------------------------|
C|-9-9-9-9-9-9-9-9-9-9-9-9-9-9-9-9|-7-7-7-7-7-7-7-7-7-7-7-7-7-7-7-7|
G|-7-7-7-7-7-7-7-7-7-7-7-7-7-7-7-7|-7-7-7-7-7-7-7-7-7-7-7-7-7-7-7-7|
D|--------------------------------|-5-5-5-5-5-5-5-5-5-5-5-5-5-5-5-5|

D|--------------------------------|--------------------------------|
A|--------------------------------|--------------------------------|
F|--------------------------------|--------------------------------|
C|-t-t-t-t-t-t-t-t-t-t-t-t-t-t-t-t|-t-t-t-t-9-9-9-9-7-7-7-7--------| 
G|-t-t-t-t-t-t-t-t-t-t-t-t-t-t-t-t|-------------------------t-t-t-t|
D|-8-8-8-8-8-8-8-8-8-8-8-8-8-8-8-8|--------------------------------|
                                    . . . . . . . . . . . . . . . .
D|--------------------------------|--------------------------------|
A|--------------------------------|--------------------------------|
F|-9-9-9-9-9-9-9-9-9-9-9-9-9-9-9-9|--------------------------------|
C|-9-9-9-9-9-9-9-9-9-9-9-9-9-9-9-9|-7-7-7-7-7-7-7-7-7-7-7-7-7-7-7-7|
G|-7-7-7-7-7-7-7-7-7-7-7-7-7-7-7-7|-7-7-7-7-7-7-7-7-7-7-7-7-7-7-7-7|
D|--------------------------------|-5-5-5-5-5-5-5-5-5-5-5-5-5-5-5-5|

D|--------------------------------|--------------------------------|
A|--------------------------------|-----------------12-------------|
F|-8-8-8-8-8-8-8-8-8-8-8-8-8-8-8-8|-9-------9---12------12--9---8~-|
C|-8-8-8-8-8-8-8-8-8-8-8-8-8-8-8-8|-----10-------------------------|
G|-6-6-6-6-6-6-6-6-6-6-6-6-6-6-6-6|--------------------------------|
D|--------------------------------|--------------------------------|

D|--------------------------------|--------------------------------|
A|--------------------------------|--------------------------------|
F|-9-------------8----------------|-7---------------6--------------|
C|--------------------------------|--------------------------------|
G|--------------------------------|--------------------------------|
D|--------------------------------|--------------------------------|

D|--------------------------------|--------------------------------|
A|--------------------------------|--------------------------------|
F|-5------------------------------|--------------------------------|
C|--------------------------------|--------------------------------|
G|--------------------------------|--------------------------------|
D|--------------------------------|--------------------------------|
Tap to rate this tab
 
# A B C D E F G H I J K L M N O P Q R S T U V W X Y Z