Bayside - The Wrong Way tab

Artist: Bayside
Album: Killing Time
Track: The Wrong Way
Guitar 1: Rhythm, D standard/1 step down (DGCFAD)
Guitar 2: Lead, D standard/1 step down (DGCFAD)
NB: notes in brackets are optional; notes with Ď.í below are palm muted;
b=bend; r=release bend

Guitar 1
Intro
D|--------------------------------|--------------------------------|
A|--------------------------------|--------------------------------|
F|--------------------------------|--------------------------------|
C|2-2---2-5-5---5-1010--1010101010|2-2---2-5-5---5-1010--1010101010| x2
G|2-2---2-5-5---5-1010--1010101010|2-2---2-5-5---5-1010--1010101010|
D|0-0---0-3-3---3-8-8---8-8-8-8-8-|0-0---0-3-3---3-8-8---8-8-8-8-8-|

D|--------------------------------|
A|--------------------------------|
F|--------------------------------|
C|-------10--------\--------------|
G|-------10--------\--------------|
D|-8-8-8-8---------\--------------|
   . . .
Verse 1
D|--------------------------------|--------------------------------|
A|--------------------------------|--------------------------------|
F|----9-------9-------------------|--------------------------------|
C|----9-------9-------10--------10|----7-------7-------9---------9-| x2
G|7-7-7---7-7-7-------10--------10|----7-------7-------9---------9-|
D|----------------8-8-8---8-8-8-8-|5-5-5---5-5-5---7-7-7---7-7-7-7-|
  . .     . .     . .     . . .    . .     . .     . .     . . .
D|--------------------------------|--------------------------------|
A|--------------------------------|--------------------------------|
F|--------------------------------|--------------------------------|
C|--------------------------------|--------------------------------|
G|-7-7-7-7------------------------|-----------------5-5-5-5-5-5-5-5|
D|---------7-7-7-7-8-8-8-8-5-5-5-5|-7-7-7-7-7-7-7-7----------------|
   . . . . . . . . . . . . . . . .  . . . . . . . . . . . . . . . .
D|--------------------------------|--------------------------------|
A|--------------------------------|--------------------------------|
F|--------------------------------|-4-4-4-x-x-4-4-4-x-x-x-4--------|
C|-2------5--------7-------5------|-4-4-4-x-x-4-4-4-x-x-x-4--------|
G|-2------5--------7-------5------|-2-2-2-x-x-2-2-2-x-x-x-2--------|
D|-0------3--------5-------3------|--------------------------------|

Chorus 1
D|--------------------------------|--------------------------------|
A|--------------------------------|--------------------------------|
F|--------------------------------|-4-4-4-4-4-4-4-4----------------|
C|-2-2-2-2-2-2-2-2-5-5-5-5-5-5-5-5|-4-4-4-4-4-4-4-4-2-2-2-2-2-2-2-2|
G|-2-2-2-2-2-2-2-2-5-5-5-5-5-5-5-5|-2-2-2-2-2-2-2-2-2-2-2-2-2-2-2-2|
D|-0-0-0-0-0-0-0-0-3-3-3-3-3-3-3-3|-----------------0-0-0-0-0-0-0-0|

D|--------------------------------|--------------------------------|
A|--------------------------------|--------------------------------|
F|-5-5-5-5-5-5-5-5-4-4-4-4-4-4-4-4|--------------------------------|
C|-5-5-5-5-5-5-5-5-4-4-4-4-4-4-4-4|-2-2-2-2-2-2-2-2-5-5/7-7-7/9----|
G|-3-3-3-3-3-3-3-3-2-2-2-2-2-2-2-2|-2-2-2-2-2-2-2-2-x-x/x-x-x/x----|
D|--------------------------------|-0-0-0-0-0-0-0-0-3-3/5-5-5/7----|

D|--------------------------------|--------------------------------|
A|--------------------------------|--------------------------------|
F|--------------------------------|-4-4-4-4-4-4-4-4----------------|
C|---------2-2-2-2-5-5-5-5-5-5-5-5|-4-4-4-4-4-4-4-4-2-2-2-2-2-2-2-2|
G|---------2-2-2-2-5-5-5-5-5-5-5-5|-2-2-2-2-2-2-2-2-2-2-2-2-2-2-2-2|
D|---------0-0-0-0-3-3-3-3-3-3-3-3|-----------------0-0-0-0-0-0-0-0|

D|--------------------------------|--------------------------------|
A|--------------------------------|--------------------------------|
F|-5-5-5-5-5-5-5-5-4-4-4-4-4-4-4-4|--------------------------------|
C|-5-5-5-5-5-5-5-5-4-4-4-4-4-4-4-4|-2-2-2-2-2-2-2-2-5-5/7-7-7/9-9\7|
G|-3-3-3-3-3-3-3-3-2-2-2-2-2-2-2-2|-2-2-2-2-2-2-2-2-x-x/x-x-x/x-x\x|
D|--------------------------------|-0-0-0-0-0-0-0-0-3-3/5-5-5/7-7\5|

D|--------------------------------|
A|--------------------------------|
F|--------------------------------|
C|-7-7--------------101010--9-9---|
G|-x-x--------------101010--9-9---|
D|-5-5--------------8-8-8---7-7---|

Verse 2
D|--------------------------------|--------------------------------|
A|--------------------------------|--------------------------------|
F|----9-------9-------------------|--------------------------------|
C|----9-------9-------10--------10|----7-------7-------9---------9-|
G|7-7-7---7-7-7-------10--------10|----7-------7-------9---------9-|
D|----------------8-8-8---8-8-8-8-|5-5-5---5-5-5---7-7-7---7-7-7-7-|
  . .     . .     . .     . . .    . .     . .     . .     . . .
D|--------------------------------|--------------------------------|
A|--------------------------------|--------------------------------|
F|----9-------9-------------------|--------------------------------|
C|----9-------9-------10--------10|----7-------7---9-9--9-9--9-9--9|
G|7-7-7---7-7-7-------10--------10|----7-------7---9-9--9-9--9-9--9|
D|----------------8-8-8---8-8-8-8-|5-5-5---5-5-5---7-7--7-7--7-7--7|
  . .     . .     . .     . . .    . .     . .
D|--------------------------------|--------------------------------|
A|--------------------------------|--------------------------------|
F|-9-----9---9--------------------|--------------------------------|
C|-9-----9---9-----10----10--10---|-7-----7---7-----9-----9---9----| x2
G|-7---7-7---7-----10----10--10---|-7-----7---7-----9-----9---9----|
D|-----------------8---8-8---8----|-5---5-5---5-----7---7-7---7----|
       .               .                .               .
D|--------------------------------|--------------------------------|
A|--------------------------------|--------------------------------|
F|--------------------------------|--------------------------------|
C|--------------------------------|--------------------------------|
G|-7------------------------------|-----------------5--------------|
D|---------7-------8-------5------|-7------------------------------|

D|--------------------------------|--------------------------------|
A|--------------------------------|--------------------------------|
F|--------------------------------|--------------------------------|
C|-9-9-9-9------------------------|-----------------7-7-7-7-7-7-7-7|
G|-7-7-7-7-9-9-9-9-101010107-7-7-7|-9-9-9-9-9-9-9-9-5-5-5-5-5-5-5-5|
D|---------7-7-7-7-8-8-8-8-5-5-5-5|-7-7-7-7-7-7-7-7----------------|
   . . . . . . . . . . . . . . . .  . . . . . . . . . . . . . . . .
D|--------------------------------|--------------------------------|
A|--------------------------------|--------------------------------|
F|--------------------------------|-4-4-4-x-x-4-4-4-x-x-x-4--------|
C|-2------5--------7-------5------|-4-4-4-x-x-4-4-4-x-x-x-4--------|
G|-2------5--------7-------5------|-2-2-2-x-x-2-2-2-x-x-x-2--------|
D|-0------3--------5-------3------|--------------------------------|

Chorus 2
D|--------------------------------|--------------------------------|
A|--------------------------------|--------------------------------|
F|--------------------------------|-4-4-4-4-4-4-4-4----------------|
C|-2-2-2-2-2-2-2-2-5-5-5-5-5-5-5-5|-4-4-4-4-4-4-4-4-2-2-2-2-2-2-2-2|
G|-2-2-2-2-2-2-2-2-5-5-5-5-5-5-5-5|-2-2-2-2-2-2-2-2-2-2-2-2-2-2-2-2|
D|-0-0-0-0-0-0-0-0-3-3-3-3-3-3-3-3|-----------------0-0-0-0-0-0-0-0|

D|--------------------------------|--------------------------------|
A|--------------------------------|--------------------------------|
F|-5-5-5-5-5-5-5-5-4-4-4-4-4-4-4-4|--------------------------------|
C|-5-5-5-5-5-5-5-5-4-4-4-4-4-4-4-4|-2-2-2-2-2-2-2-2-5-5/7-7-7/9----|
G|-3-3-3-3-3-3-3-3-2-2-2-2-2-2-2-2|-2-2-2-2-2-2-2-2-x-x/x-x-x/x----|
D|--------------------------------|-0-0-0-0-0-0-0-0-3-3/5-5-5/7----|

D|--------------------------------|--------------------------------|
A|--------------------------------|--------------------------------|
F|--------------------------------|-4-4-4-4-4-4-4-4----------------|
C|---------2-2-2-2-5-5-5-5-5-5-5-5|-4-4-4-4-4-4-4-4-2-2-2-2-2-2-2-2|
G|---------2-2-2-2-5-5-5-5-5-5-5-5|-2-2-2-2-2-2-2-2-2-2-2-2-2-2-2-2|
D|---------0-0-0-0-3-3-3-3-3-3-3-3|-----------------0-0-0-0-0-0-0-0|

D|--------------------------------|--------------------------------|
A|--------------------------------|--------------------------------|
F|-5-5-5-5-5-5-5-5-4-4-4-4-4-4-4-4|--------------------------------|
C|-5-5-5-5-5-5-5-5-4-4-4-4-4-4-4-4|-2-2-2-2-2-2-2-2-5-5/7-7-7/9-9\7|
G|-3-3-3-3-3-3-3-3-2-2-2-2-2-2-2-2|-2-2-2-2-2-2-2-2-x-x/x-x-x/x-x\x|
D|--------------------------------|-0-0-0-0-0-0-0-0-3-3/5-5-5/7-7\5|

D|--------------------------------|
A|--------------------------------|
F|--------------------------9-9---|
C|-7-7--------------101010--9-9---|
G|-x-x--------------101010--7-7---|
D|-5-5--------------8-8-8---------|

Bridge
D|--------------------------------|--------------------------------|
A|--------------------------------|--------------------------------|
F|--------------------------------|--------------------------------|
C|--------------------------------|-----------------------3----3---| x2
G|-------------2---------------2--|-3-----------3---2-----3----3---|
D|-0-----3---------0-----3--------|-------3---------------1----1---|

D|--------------------------------|--------------------------------|
A|--------------------------------|--------------------------------|
F|--------------------------------|--------------------------------|
C|--------------------------------|--------------------------------| x4
G|-------------2---------------2--|-3-----------3---2--------------|
D|-0-----3---------0-----3--------|-------3---------------1----1---|
                                                          .    .
Solo
D|--------------------------------|--------------------------------|
A|--------------------------------|--------------------------------|
F|--------------------------------|-4-4-4-4-4-4-4-4----------------|
C|-2-2-2-2-2-2-2-2-5-5-5-5-5-5-5-5|-4-4-4-4-4-4-4-4-2-2-2-2-2-2-2-2| x4
G|-2-2-2-2-2-2-2-2-5-5-5-5-5-5-5-5|-2-2-2-2-2-2-2-2-2-2-2-2-2-2-2-2|
D|-0-0-0-0-0-0-0-0-3-3-3-3-3-3-3-3|-----------------0-0-0-0-0-0-0-0|

D|--------------------------------|
A|--------------------------------|
F|--------------------------------|
C|-2-----2---2---2-----2---2------|
G|-2-----2---2---2-----2---2------|
D|-0-----0---0---0-----0---0------|

End Chorus
D|--------------------------------|--------------------------------|
A|--------------------------------|--------------------------------|
F|--------------------------------|-4-4-4-4-4-4-4-4----------------|
C|-2-2-2-2-2-2-2-2-5-5-5-5-5-5-5-5|-4-4-4-4-4-4-4-4-2-2-2-2-2-2-2-2|
G|-2-2-2-2-2-2-2-2-5-5-5-5-5-5-5-5|-2-2-2-2-2-2-2-2-2-2-2-2-2-2-2-2|
D|-0-0-0-0-0-0-0-0-3-3-3-3-3-3-3-3|-----------------0-0-0-0-0-0-0-0|

D|--------------------------------|--------------------------------|
A|--------------------------------|--------------------------------|
F|-5-5-5-5-5-5-5-5-4-4-4-4-4-4-4-4|--------------------------------|
C|-5-5-5-5-5-5-5-5-4-4-4-4-4-4-4-4|-----2-------2---5-5/7-7-7/9----|
G|-3-3-3-3-3-3-3-3-2-2-2-2-2-2-2-2|-----2-------2---x-x/x-x-x/x----|
D|--------------------------------|-0-0-0---0-0-0---3-3/5-5-5/7----|
                                    . .     . .
D|--------------------------------|--------------------------------|
A|--------------------------------|--------------------------------|
F|--------------------------------|-4-4-4-4-4-4-4-4----------------|
C|-----------------5-5-5-5-5-5-5-5|-4-4-4-4-4-4-4-4-2-2-2-2-2-2-2-2|
G|-----------------5-5-5-5-5-5-5-5|-2-2-2-2-2-2-2-2-2-2-2-2-2-2-2-2|
D|-----------------3-3-3-3-3-3-3-3|-----------------0-0-0-0-0-0-0-0|

D|--------------------------------|--------------------------------|
A|--------------------------------|--------------------------------|
F|-5-5-5-5-5-5-5-5-4-4-4-4-4-4-4-4|--------------------------------|
C|-5-5-5-5-5-5-5-5-4-4-4-4-4-4-4-4|-2-2-2-2-2-2-2-2-5-5/7-7-7/9-9\7|
G|-3-3-3-3-3-3-3-3-2-2-2-2-2-2-2-2|-2-2-2-2-2-2-2-2-x-x/x-x-x/x-x\x|
D|--------------------------------|-0-0-0-0-0-0-0-0-3-3/5-5-5/7-7\5|

D|--------------------------------|
A|--------------------------------|
F|--------------------------------|
C|-7-7--------------101010--9-9---|
G|-x-x--------------101010--9-9---|
D|-5-5--------------8-8-8---7-7---|




Guitar 2
Intro
D|-----10-------------------------|--------------------------------|
A|--------12----------------------|--------------------------------|
F|-9--------------9---11-12-11-9--|---9-\-7-------11--b12--r11-----|
C|--------------------------------|12-------9----------------------|
G|--------------------------------|--------------------------------|
D|--------------------------------|--------------------------------|

D|--------------------------------|--------------------------------|
A|--------12----------------------|---------------------12---------|
F|------9----12------9---11-12-11-|9----9-------9-11-12----12-9-11-|
C|---12---------------------------|--12----------------------------|
G|--------------------------------|--------------------------------|
D|--------------------------------|--------------------------------|
    . .
D|--------------------------------|
A|-12-12-12-12--------\-----------|
F|--------------------------------|
C|--------------------------------|
G|--------------------------------|
D|--------------------------------|
      .   .
Verse 1
D|--------------------------------|--------------------------------|
A|--------------------------------|--------------------------------|
F|----9-------9-------------------|--------------------------------|
C|----9-------9-------10--------10|----7-------7-------9---------9-| x2
G|7-7-7---7-7-7-------10--------10|----7-------7-------9---------9-|
D|----------------8-8-8---8-8-8-8-|5-5-5---5-5-5---7-7-7---7-7-7-7-|
  . .     . .     . .     . . .    . .     . .     . .     . . .
D|--------------------------------|--------------------------------|
A|--------------------------------|--------------------------------|
F|--------------------------------|--------------------------------|
C|--------------------------------|--------------------------------|
G|-7-7-7-7------------------------|-----------------5-5-5-5-5-5-5-5|
D|---------7-7-7-7-8-8-8-8-5-5-5-5|-7-7-7-7-7-7-7-7----------------|
   . . . . . . . . . . . . . . . .  . . . . . . . . . . . . . . . .
D|--------------------------------|--------------------------------|
A|--------------------------------|--------------------------------|
F|--------------------------------|-4-4-4-x-x-4-4-4-x-x-x-4--------|
C|-2------5--------7-------5------|-4-4-4-x-x-4-4-4-x-x-x-4--------|
G|-2------5--------7-------5------|-2-2-2-x-x-2-2-2-x-x-x-2--------|
D|-0------3--------5-------3------|--------------------------------|

Chorus 1
D|-----7--------------------------|--------------------------------|
A|---------8-----------8----------|-------------7---8---7----------|
F|-9-----------9---7-----------7--|-----7---9---------------9---7--|
C|--------------------------------|-9------------------------------|
G|--------------------------------|--------------------------------|
D|--------------------------------|--------------------------------|

D|--------------------------------|-------7------------------------|
A|---------8---------------8------|-------8------------------------|
F|-----9-------9-------7----------|-------9------------------------|
C|-10--------------9--------------|-------9------------------------|
G|--------------------------------|--------------------------------|
D|--------------------------------|--------------------------------|

D|-----7--------------------------|--------------------------------|
A|---------8-----------8----------|-------------7---8---7----------|
F|-------------9---7-----------7--|-----7---9---------------9---7--|
C|--------------------------------|-9------------------------------|
G|--------------------------------|--------------------------------|
D|--------------------------------|--------------------------------|

D|--------------------------------|-------7------------------------|
A|---------8---------------8------|-------8------------------------|
F|-----9-------9-------7----------|-------9------9-11-12-11-12-11-9|
C|-10--------------9--------------|-------9------------------------|
G|--------------------------------|--------------------------------|
D|--------------------------------|--------------------------------|

D|--------------------------------|
A|--------------------------------|
F|-----9------------121212--1111--|
C|-12---------------101010--9-9---|
G|--------------------------------|
D|--------------------------------|

Verse 2
D|--------------------------------|--------------------------------|
A|--------------------------------|--------------------------------|
F|----9-------9-------------------|--------------------------------|
C|----9-------9-------10--------10|----7-------7-------9---------9-|
G|7-7-7---7-7-7-------10--------10|----7-------7-------9---------9-|
D|----------------8-8-8---8-8-8-8-|5-5-5---5-5-5---7-7-7---7-7-7-7-|
  . .     . .     . .     . . .    . .     . .     . .     . . .
D|--------------------------------|--------------------------------|
A|--------------------------------|--------------------------------|
F|----9-------9-------------------|--------------------------------|
C|----9-------9-------10--------10|----7-------7---9-9--9-9--9-9--9|
G|7-7-7---7-7-7-------10--------10|----7-------7---9-9--9-9--9-9--9|
D|----------------8-8-8---8-8-8-8-|5-5-5---5-5-5---7-7--7-7--7-7--7|
  . .     . .     . .     . . .    . .     . .
D|-7---7-7---7-----8---8-8---8----|-5---5-5---5-----7---7-7---7----|
A|-8---8-8---8-----8---8-8---8----|-5---5-5---5-----7---7-7---7----|
F|-9---9-9---9-----9---9-9---9----|-5---5-5---5-----7---7-7---7----|
C|-9---9-9---9-----10--1010--10---|-7---7-7---7-----9---9-9---9----|
G|--------------------------------|--------------------------------|
D|--------------------------------|--------------------------------|

D|-7---7-7---7-----8---8-8---8----|-5---5-5---5--------------------|
A|-8---8-8---8-----8---8-8---8----|-5---5-5---5-----------7--------|
F|-9---9-9---9-----9---9-9---9----|-5---5-5---5-------7-9---9---7--|
C|-9---9-9---9-----10--1010--10---|-7---7-7---7-----9--------------|
G|--------------------------------|--------------------------------|
D|--------------------------------|--------------------------------|

D|--------------------------------|--------------------------------|
A|--------------------------------|--------------------------------|
F|--------------------------------|--------------------------------|
C|--------------------------------|--------------------------------|
G|-7------------------------------|-----------------5--------------|
D|---------7-------8-------5------|-7------------------------------|

D|--------------------------------|--------------------------------|
A|--------------------------------|--------------------------------|
F|--------------------------------|--------------------------------|
C|-9-9-9-9------------------------|-----------------7-7-7-7-7-7-7-7|
G|-7-7-7-7-9-9-9-9-101010107-7-7-7|-9-9-9-9-9-9-9-9-5-5-5-5-5-5-5-5|
D|---------7-7-7-7-8-8-8-8-5-5-5-5|-7-7-7-7-7-7-7-7----------------|
   . . . . . . . . . . . . . . . .  . . . . . . . . . . . . . . . .
D|--------------------------------|--------------------------------|
A|--------------------------------|--------------------------------|
F|--------------------------------|-4-4-4-x-x-4-4-4-x-x-x-4--------|
C|-2------5--------7-------5------|-4-4-4-x-x-4-4-4-x-x-x-4--------|
G|-2------5--------7-------5------|-2-2-2-x-x-2-2-2-x-x-x-2--------|
D|-0------3--------5-------3------|--------------------------------|

Chorus 2
D|-----7--------------------------|--------------------------------|
A|---------8-----------8----------|-------------7---8---7----------|
F|-9-----------9---7-----------7--|-----7---9---------------9---7--|
C|--------------------------------|-9------------------------------|
G|--------------------------------|--------------------------------|
D|--------------------------------|--------------------------------|

D|--------------------------------|-------7------------------------|
A|---------8---------------8------|-------8------------------------|
F|-----9-------9-------7----------|-------9------------------------|
C|-10--------------9--------------|-------9------------------------|
G|--------------------------------|--------------------------------|
D|--------------------------------|--------------------------------|

D|-----7--------------------------|--------------------------------|
A|---------8-----------8----------|-------------7---8---7----------|
F|-------------9---7-----------7--|-----7---9---------------9---7--|
C|--------------------------------|-9------------------------------|
G|--------------------------------|--------------------------------|
D|--------------------------------|--------------------------------|

D|--------------------------------|-------7------------------------|
A|---------8---------------8------|-------8------------------------|
F|-----9-------9-------7----------|-------9------9-11-12-11-12-11-9|
C|-10--------------9--------------|-------9------------------------|
G|--------------------------------|--------------------------------|
D|--------------------------------|--------------------------------|

D|--------------------------------|
A|--------------------------------|
F|-----9------------121212--1616--|
C|-12---------------101010--1414--|
G|--------------------------------|
D|--------------------------------|


Bridge (I would normally play the F notes in the part after the D# chords on the G 
string but for tabbing ease Iíve put them on the C string, and the last parts are pretty 
rough as theyíre hard to hear).
D|--------------------------------|--------------------------------|
A|--------------------------------|--------------------------------|
F|--------------------------------|--------------------------------|
C|--------------------------------|------------------------3---3---| x2
G|--------------------------------|------------------------3---3---|
D|--------------------------------|------------------------1---1---|

D|--------------------------------|--------------------------------|
A|--------------------------------|--------------------------------|
F|--------------------------------|---------------------------5---4|
C|--------------------------------|-5-5-5-5-5-5-5-5-5-5-5-5-5---5--| x2
G|-7-7-7-7-7-7-7-7-7-7-7-7-7-7-7-7|--------------------------------|
D|--------------------------------|--------------------------------|

D|--------------------------------|--------------------------------|
A|--------------------------------|--------------------------------|
F|--------------------------------|--------------------------------|
C|--------9---9------------9-7----|------------9-10-------9-10---9-|
G|-7-9-10---7---7-7-7-9-10-----10-|10-10-10-12------10-12------9---|
D|--------------------------------|--------------------------------|
   . . .    .   . . . . .           .  .  .         .  .  .    .

D|--------------------------------|--------------------------------|
A|--------------------------------|--------------------------------|
F|--------------------------------|------------------12-------9-11-|
C|--------9----------------9-7----|-------9-10-10-10----10-12------|
G|-7-9-10---7-7-7-9-7-9-10-----10-|-10-12--------------------------|
D|--------------------------------|--------------------------------|
   . . .    .   . . . . .           .  .  .  .  .  .    .  .  .

Solo (this is as far as Iíve got, working progress)
D|---12---------------------------|-12-------14--------------------|
A|------12------------------------|----12-------12----13-15--------|
F|-9---------11*b---9-------------|-------12-------12-------15b16--|
C|--------------------12-9--------|--------------------------------|
G|-------------------------12-10--|--------------------------------|
D|--------------------------------|--------------------------------|
                    .  . .  .  .
D|------------------12-12---15-15-|-12-----------------------------|
A|---------------------12---15-15-|-12---------------------12h13-15|
F|-12-------11~--------12---16-16-|-12(12)14b16------12b14---------|
C|----14-12-----------------------|-------------12-----------------|
G|--------------------------------|--------------------------------|
D|--------------------------------|--------------------------------|
       .  .
D|---------15--b--17--------------|--------------------------------|
A|----------------------------15--|--------------------------------|
F|---14b16------------------------|--------------------------------|
C|--------------------------------|--------------------------------|
G|--------------------------------|--------------------------------|
D|--------------------------------|--------------------------------|

End Chorus
D|-----7--------------------------|--------------------------------|
A|---------8-----------8----------|-------------7---8---7----------|
F|-9-----------9---7-----------7--|-----7---9---------------9---7--|
C|--------------------------------|-9------------------------------|
G|--------------------------------|--------------------------------|
D|--------------------------------|--------------------------------|

D|--------------------------------|-------7------------------------|
A|---------8---------------8------|-------8------------------------|
F|-----9-------9-------7----------|-------9------------------------|
C|-10--------------9--------------|-------9------------------------|
G|--------------------------------|--------------------------------|
D|--------------------------------|--------------------------------|

D|--------------------------------|--------------------------------|
A|---------------------8----------|-------------7---8---7----------|
F|-------------9---7-----------7--|-----7---9---------------9---7--|
C|--------------------------------|-9------------------------------|
G|--------------------------------|--------------------------------|
D|--------------------------------|--------------------------------|

D|--------------------------------|-------7------------------------|
A|---------8---------------8------|-------8------------------------|
F|-----9-------9-------7----------|-------9------9-11-12-11-12-11-9|
C|-10--------------9--------------|-------9------------------------|
G|--------------------------------|--------------------------------|
D|--------------------------------|--------------------------------|

D|--------------------------------|
A|--------------------------------|
F|-----9------------121212--1111--|
C|-12---------------101010--9-9---|
G|--------------------------------|
D|--------------------------------|
Tap to rate this tab
 
# A B C D E F G H I J K L M N O P Q R S T U V W X Y Z