Song name
# A B C D E F G H I J K L M N O P Q R S T U V W X Y Z

Bayside - Montauk tab

Montauk
By Bayside

This is my first tab, so sorry if it's not perfect. Not to say that alot of the other
Bayside tabs are incorrect, but they play all of their songs(that ive come across) in D
Standard (DGCFBD) or C# Standard (C#,F#,B,E,G#,C#), and rarely a Drop C or Drop B. 
Anyways, i couldnt find a justified tab for this solo, so i decided to do it myself. Its not
correct to every note, but I'm confident that it's around 99% accurate.

c#|----------------------------------4-----5-4---4---------------------|
G#|------4-5---4--------------4-5-7----7-5-----7---7--5-4-5-7-5-4------|
E |6-4-6-----6---6--4-6-4-----------------------------------------6-4--|
B |-----------------------7-6------------------------------------------|
F#|--------------------------------------------------------------------|
C#|--------------------------------------------------------------------|

c#|------------------------------------------------------------------|
G#|-----2-----3-2----2-3-5-3----------1-----2-1---1-2-1-2-4h5p4------|
E |-2-4---4-2-----2-----------4-2-1-2---2-1-----1----------------5-6-|
B |------------------------------------------------------------------|
F#|------------------------------------------------------------------|
C#|------------------------------------------------------------------|

c#|------------12----12-14--14^-----12-h14-p12---------------------------------------|
G#|------12-14----14-------------14------------h14---7-5---57-7^-5---------------9--|
E |/13---------------------------------------------------6----------6-5-----6-5-8----|
B |---------------------------------------------------------------------7-6----------|
F#|----------------------------------------------------------------------------------|
C#|----------------------------------------------------------------------------------|

c#|-----------------------------------------------------------|
G#|-------------14----16----17-----16----17----16----14121212|
E |/13--131313-----13----13----13-----13----13----13----------|
B |-----------------------------------------------------------|
F#|-----------------------------------------------------------|
C#|-----------------------------------------------------------|

-12----14----16----14----16----14----12----12-|
----12----12----12----12----12----12----12----|
----------------------------------------------|
----------------------------------------------|
----------------------------------------------|
----------------------------------------------|


c#|---------------------------------------------------------------------|
G#|-------12-14-/16-14-16-/17-16-17-/19-17-19--19b21r19-17-16-----------|
E |141414----------------------------------------------------18-17------|
B |----------------------------------------------------------------18---|
F#|---------------------------------------------------------------------|
C#|---------------------------------------------------------------------|

c#|----16----16----16----16----16^-|
G#|------19^---19^---19^---19^-----|
E |--------------------------------|
B |-18-----------------------------|
F#|--------------------------------|
C#|--------------------------------|


-BREAKDOWN-

c#|-----------------------------------------------|
G#|-----------------------------------------------|
E |-6--8/9-----------4--9--8--9--11-9-8/9\8-----|
B |-6--x/x--------4--4--x--x--x--x---x--x-x-x-----|
F#|-4--6/7--------4--2--7--6--7--9---7-6/7\6-----|
C#|---------------2-------------------------------|

c#|-------------------4--|
G#|-------------------4--|
E |-6-----4--9--8--5-5-|
B |-6--4--4--x--x--x--6--|
F#|-4--4--2--7--6--3--6--|
C#|----2--------------4--|

Any corrections? Email me.
Tap to rate this tab
# A B C D E F G H I J K L M N O P Q R S T U V W X Y Z