Song name
# A B C D E F G H I J K L M N O P Q R S T U V W X Y Z

Bayside - Winter Acoustic tab

Winter
Bayside

Great song. I love it, and none of the tabs sounded right, so im doing it. Its my first 
tab, soo... It probably isnt perfect, but the
chords are close. Its just chords, so figure out the strumming. No capo. Standard 
tuning. Yay.

Verse:
               When Winter falls                  Next year ill be
E--2-------------------------------4--------------------------------------|
B--2-------------------------------4--------------------------------------|
G--4-------------------------------4--------------------------------------|
D--4-------------------------------6--------------------------------------|
A--2-------------------------------6--------------------------------------|
E--2-------------------------------4--------------------------------------|
   1   2   3   4   1   2   3   4   1   2   3   4   1   2   3   4

   Holding        on            To anything nailed down...
E--0-------------------------------2--------------------------------------|
B--0-------------------------------2--------------------------------------|
G--1-------------------------------3--------------------------------------|
D--2-------------------------------4--------------------------------------|
A--2-------------------------------4--------------------------------------|
E--0-------------------------------2--------------------------------------|
   1   2   3   4   1   2   3   4   1   2   3   4   1   2   3   4



**You play this AGAIN until "im calling..."**



Im callin all my oldest friends sayin sorry for this mess we're in
E--4-------------------------------0--------------------------------------|
B--4-------------------------------0--------------------------------------|
G--4-------------------------------1--------------------------------------|
D--6-------------------------------2--------------------------------------|
A--6-------------------------------2--------------------------------------|
E--4-------------------------------0--------------------------------------|
   1   2   3   4   1   2   3   4   1   2   3   4   1   2   3   4

and im waiting                     waiting
E--2-------------------------------2--------------------------------------|
B--2-------------------------------2--------------------------------------|
G--4-------------------------------3--------------------------------------|
D--4-------------------------------4--------------------------------------|
A--2-------------------------------4--------------------------------------|
E--2-------------------------------2--------------------------------------|
   1   2   3   4   1   2   3   4   1   2   3   4   1   2   3   4



**Play this AGAIN until chorus.**



Chorus:

   An angel got his wings and well hold our heads up knowing that hes
E--2-------------------------------0----------------2---------------------|
B--2-------------------------------0----------------2---------------------|
G--4-------------------------------1----------------3---------------------|
D--4-------------------------------2----------------4---------------------|
A--2-------------------------------2----------------4---------------------|
E--2-------------------------------0----------------2---------------------|
   1   2   3   4   1   2   3   4   1   2   3   4   1   2   3   4

   fine           We'd all be lucky to have a love like that in a lifetime
E--4-------------------------------0--------------------2-------------2---|
B--4-------------------------------0--------------------2-------------2---|
G--4-------------------------------1--------------------3-------------4---|
D--6-------------------------------2--------------------4-------------4---|
A--6-------------------------------2--------------------4-------------2---|
E--4-------------------------------0--------------------2-------------2---|
   1   2   3   4   1   2   3   4   1   2   3   4   1   2   3   4



**Repeat all over again until bridge.**



Bridge:

           These   nights   in   vans
E--0-------------------------------2--------------------------------------|
B--0-------------------------------2--------------------------------------|
G--1-------------------------------4--------------------------------------|
D--2-------------------------------4--------------------------------------|
A--2-------------------------------2--------------------------------------|
E--0-------------------------------2--------------------------------------|
   1   2   3   4   1   2   3   4   1   2   3   4   1   2   3   4

           These   nights   in   bars
E--0-------------------------------2--------------------------------------|
B--0-------------------------------2--------------------------------------|
G--1-------------------------------4--------------------------------------|
D--2-------------------------------4--------------------------------------|
A--2-------------------------------2--------------------------------------|
E--0-------------------------------2--------------------------------------|
   1   2   3   4   1   2   3   4   1   2   3   4   1   2   3   4

           Dont  mean   a    thing   with empty hearts
E--0-------------------------------2---------------4-------2--------------|
B--0-------------------------------2---------------4-------2--------------|
G--1-------------------------------3---------------4-------3--------------|
D--2-------------------------------4---------------6-------4--------------|
A--2-------------------------------4---------------6-------4--------------|
E--0-------------------------------2---------------4-------2--------------|
   1   2   3   4   1   2   3   4   1   2   3   4   1   2   3   4

               With empty          hearts...
E--0---------------2---------------2--------------------------------------|
B--0---------------2---------------2--------------------------------------|
G--1---------------3---------------4--------------------------------------|
D--2---------------4---------------4--------------------------------------|
A--2---------------4---------------2--------------------------------------|
E--0---------------2---------------2--------------------------------------|
   1   2   3   4   1   2   3   4   1   2   3   4   1   2   3   4


E--0---------------2---------------2--------------------------------------|
B--0---------------2---------------2--------------------------------------|
G--1---------------3---------------4--------------------------------------|
D--2---------------4---------------4--------------------------------------|
A--2---------------4---------------2--------------------------------------|
E--0---------------2---------------2--------------------------------------|
   1   2   3   4   1   2   3   4   1   2   3   4   1   2   3   4

E--0---------------2---------------|
B--0---------------2---------------|
G--1---------------3---------------|
D--2---------------4---------------|
A--2---------------4---------------|
E--0---------------2---------------|
   1   2   3   4   1   2   3   4
                   (on this chord, start low and build up with 16ths)

Then back to the chorus, and thats it. Hope it helps you out.
Tap to rate this tab
# A B C D E F G H I J K L M N O P Q R S T U V W X Y Z