Song name
# A B C D E F G H I J K L M N O P Q R S T U V W X Y Z

Bayside - Sinking And Swimming On Long Island tab

-------------------------------------------------------------------------------
     Sinking and Swiming On Long Island - Bayside
-------------------------------------------------------------------------------
Tabbed by:KidGT (based on guitarhead2000's chords)
E-mail:

This is my first attempt at a tab, so please be nice if it sucks.


Tuning:Drop D Distorted

Rythmn Intro x 4
e|---------------------------------------------------------------------------|
B|---------------------------------------------------------------------------|
G|---------------------------------------------------------------------------|
D|---------------------------------------------------------------------------|
A|----4-7-5-5-----4h5-------4h5----------------------------------------------|
D|--00----------44--------55-------------------------------------------------|


Verse 1
e|---------------------------------------------------------------------------|
B|---------------------------------------------------------------------------|
G|---------------------------------------------------------------------------|
D|--000x00x00x---000x00x00x-------9---4---5---7---222x22x22x-----------------|
A|--000x00x00x---000x00x00x-------9---4---5---7---222x22x22x-----------------|
D|--000x00x00x---000x00x00x-------9---4---5---7---222x22x22x-----------------|


cont.
e|---------------------------------------------------------------------------|
B|---------------------------------------------------------------------------|
G|---------------------------------------------------------------------------|
D|--000x00x00x---000x00x00x-------9---4---5---7---222x22x22x--222x22x22x-----|
A|--000x00x00x---000x00x00x-------9---4---5---7---222x22x22x--222x22x22x-----|
D|--000x00x00x---000x00x00x-------9---4---5---7---222x22x22x--222x22x22x-----|


Chorus
e|---------------------------------------------------------------------------|
B|---------------------------------------------------------------------------|
G|---------------------------------------------------------------------------|
D|--99-1212-44-55-77-88-9999----55-1212-44-55-77-1111-12121212---------------|
A|--99-1212-44-55-77-88-9999----55-1212-44-55-77-1111-12121212---------------|
D|--99-1212-44-55-77-88-9999----55-1212-44-55-77-1111-12121212---------------|
       *Twelve                    *twelve      *Eleven and twelve


After Chorus
"Til everythings gone.....Til everythings gone....."
e|---------------------------------------------------------------------------|
B|---------------------------------------------------------------------------|
G|---------------------------------------------------------------------------|
D|-----9----------5---------------------9--------------5---------------------|
A|-----9----------5---------------------9--------------5---------------------|
D|-----9----------5---------------------9--------------5---------------------|
                       *strum lightly

Repeat Intro x 4
e|---------------------------------------------------------------------------|
B|---------------------------------------------------------------------------|
G|---------------------------------------------------------------------------|
D|---------------------------------------------------------------------------|
A|----4-7-5-5-----4h5-------4h5----------------------------------------------|
D|--00----------44--------55-------------------------------------------------|


Verse 2
e|---------------------------------------------------------------------------|
B|---------------------------------------------------------------------------|
G|---------------------------------------------------------------------------|
D|--000x00x00x---000x00x00x-------9---4---5---7---222x22x22x-----------------|
A|--000x00x00x---000x00x00x-------9---4---5---7---222x22x22x-----------------|
D|--000x00x00x---000x00x00x-------9---4---5---7---222x22x22x-----------------|


contd.
e|---------------------------------------------------------------------------|
B|---------------------------------------------------------------------------|
G|---------------------------------------------------------------------------|
D|--000x00x00x---000x00x00x-------9---4---5---7---222x22x22x--222x22x22x-----|
A|--000x00x00x---000x00x00x-------9---4---5---7---222x22x22x--222x22x22x-----|
D|--000x00x00x---000x00x00x-------9---4---5---7---222x22x22x--222x22x22x-----|


Chorus 2
e|---------------------------------------------------------------------------|
B|---------------------------------------------------------------------------|
G|---------------------------------------------------------------------------|
D|--99-1212-44-55-77-88-9999----55-1212-44-55-77-1111-12121212---------------|
A|--99-1212-44-55-77-88-9999----55-1212-44-55-77-1111-12121212---------------|
D|--99-1212-44-55-77-88-9999----55-1212-44-55-77-1111-12121212---------------|
       *Twelve                    *twelve      *Eleven and twelve


After Chorus
    "Til everythings gone.....         Til everythings gone....."
e|---------------------------------------------------------------------------|
B|---------------------------------------------------------------------------|
G|---------------------------------------------------------------------------|
D|-----9999---------5555-------------9999-------5555-------------------------|
A|-----9999---------5555-------------9999-------5555-------------------------|
D|-----9999---------5555-------------9999-------5555-------------------------|


Interlude
  "I swear"            "Damn it all to hell"  "Damn...it...all...to...hell...I"
e|---------------------------------------------------------------------------|
B|---------------------------------------------------------------------------|
G|---------------------------------------------------------------------------|
D|----4-------------------------5------------------7777777777777777----------|
A|----4-------------------------5------------------7777777777777777----------|
D|----4-------------------------5------------------7777777777777777----------|


contd.
 "...think I finally found a way..."
e|---------------------------------------------------------------------------|
B|---------------------------------------------------------------------------|
G|---------------------------------------------------------------------------|
D|--0-00--4444----99-99/7-77-----0000---4444---99999999----------------------|
A|--0-00--4444----99-99/7-77-----0000---4444---99999999----------------------|
D|--0-00--4444----99-99/7-77-----0000---4444---99999999----------------------|

 *Not quite sure about this part. I think the notes are correct just not sure
        of the strumming. Listen and you'll get it.*


contd.
   "The harder you work...
e|---------------------------------------------------------------------------|
B|---------------------------------------------------------------------------|
G|---------------------------------------------------------------------------|
D|----2---------------4-------------------5--------------------7-------------|
A|----2---------------4-------------------5--------------------7-------------|
D|----2---------------4-------------------5--------------------7-------------|
                *Let each note ring out*

   
   "You wake up one day..."
e|---------------------------------------------------------------------------|
B|---------------------------------------------------------------------------|
G|---------------------------------------------------------------------------|
D|----2---------------4-------------------5--------------------7-------------|
A|----2---------------4-------------------5--------------------7-------------|
D|----2---------------4-------------------5--------------------7-------------|
                *Let each note ring out*


Chrous/Breakdown (Muted) Repeat 2x
e|---------------------------------------------------------------------------|
B|---------------------------------------------------------------------------|
G|---------------------------------------------------------------------------|
D|--99-1212-44-55-77-88-9999----55-1212-44-55-77-1111-12121212---------------|
A|--99-1212-44-55-77-88-9999----55-1212-44-55-77-1111-12121212---------------|
D|--99-1212-44-55-77-88-9999----55-1212-44-55-77-1111-12121212---------------|
    xx x x  xx xx xx xx xxxx    xx x x  xx xx xx x x  x x x x
            *All Muted

Chorus 4
e|---------------------------------------------------------------------------|
B|---------------------------------------------------------------------------|
G|---------------------------------------------------------------------------|
D|--99-1212-44-55-77-88-9999----55-1212-44-55-77-1111-12121212---------------|
A|--99-1212-44-55-77-88-9999----55-1212-44-55-77-1111-12121212---------------|
D|--99-1212-44-55-77-88-9999----55-1212-44-55-77-1111-12121212---------------|


After Chorus (repeat 2x)

    "Til everythings gone.....         Til everythings gone....."
e|---------------------------------------------------------------------------|
B|---------------------------------------------------------------------------|
G|---------------------------------------------------------------------------|
D|-----9999---------5555-------------9999-------5555-------------------------|
A|-----9999---------5555-------------9999-------5555-------------------------|
D|-----9999---------5555-------------9999-------5555-------------------------|


Outro
  "I swear..."                      "Damn it all to hell..."
e|---------------------------------------------------------------------------|
B|---------------------------------------------------------------------------|
G|---------------------------------------------------------------------------|
D|------4--------------------------------------5-----------------------------|
A|------4------------------------------------5-------------------------------|
D|------4----------------------------------5---------------------------------|
                                        *Pick

************************************

| /   slide up
| \   slide down
| h   hammer-on
| p   pull-off
| ~   vibrato
| +   harmonic
| x   Mute note
| b   Bend
| pb  Pre-bend
| br  Bend release
| pbr Pre-bend release
| brb Bend release bend

************************************
Tap to rate this tab
# A B C D E F G H I J K L M N O P Q R S T U V W X Y Z