Song name
# A B C D E F G H I J K L M N O P Q R S T U V W X Y Z

Bayside - Masterpiece tab

Well originall tabbed by patrice naud..

Updated: This song is definitely in C.

Sounds Good To Me.

 Intro x4 0:00
D|------------------------------------------------------------------------|
A|------------------------------------------------------------------------|
F|-------------------3333333333333333-------------------------------------|
C|-0000000000000000--3333333333333333-------------------------------------|
G|-0000000000000000--1111111111111111-------------------------------------|
C|-0000000000000000-------------------------------------------------------|

verse 0:19
D|-----------------------------------------------|
A|-----------------------------------------------|
F|---------------333333333333--777-7-55-5-333333-|
C|-000000000000--333333333333--777-7-55-5-333333-|
G|-000000000000--111111111111--555-7-33-3-111111-|
C|-000000000000----------------------------------|
PM ............    ..........

 0:27
D|(GTR1)--------|(GTR2)--------|
A|--------------|--------------|
F|--------------|--------------|
C|--7--5--3--2--|--------------|
G|--------------|--------------|
C|--------------|--7--5--3--2--|
 
D|--------------------------------------------------------|
A|--------------------------------------------------------|
F|---------------------3333333333333333-333-3-55-5--------|
C|--0000000000000000---3333333333333333-333-3-55-5--------|
G|--0000000000000000---1111111111111111-111-1-33-3--------|
C|--0000000000000000--------------------------------------|
PM                                      ...   ..

 GTR 1 x2 0:35
D|---------5-5-----6-6-5-5---------|-----------------------|
A|-----6-6-----8-8---------8-8-6-6-|-----------------------|
F|-7-7-----------------------------|--333-3--55-5----------|
C|---------------------------------|--333-3--55-5----------|
G|---------------------------------|--111-1--33-3----------|
C|---------------------------------|-----------------------|
PM                                    ...    ..

 GTR 2 x2 0:35
D|---------------------------------|-----------------------|
A|---------5-5-6-6-----5-5---------|-----------------------|
F|-----------------7-7---------5-5-|--333-3--55-5----------|
C|-----7-7-----------------7-7-----|--333-3--55-5----------|
G|-5-5-----------------------------|--111-1--33-3----------|
C|---------------------------------|-----------------------|
PM                                    ...    ..

 Chorus x2 0:46
D|----------------------------------------------------------------|
A|----------------------------------------------------------------|
F|--7-7777--------5-5555--------------10-10101010-----------------|
C|--7-7777-3-3333-5-5555-55-77-8-8888-10-10101010-777777777777777-|
G|--5-5555-3-3333-3-3333-55-77-8-8888--8--8-8-8-8-777777777777777-|
C|---------3-3333--------55-77-8-8888-------------777777777777777-|

 Bridge x2 1:04
D|------------------------------------------------------------------------|
A|------------------------------------------------------------------------|
F|-------------------3333333333333333-------------------------------------|
C|-0000000000000000--3333333333333333-------------------------------------|
G|-0000000000000000--1111111111111111-------------------------------------|
C|-0000000000000000-------------------------------------------------------

 Verse 1:14
D|----------------------------------------------------|
A|----------------------------------------------------|
F|---------------333333333333----777-555--333333------|
C|-000000000000--333333333333----777-555--333333------|
G|-000000000000--111111111111----555-333--111111------|
C|-000000000000---------------------------------------|
PM  ...........    ..........      .   .

 1:22
D|(GTR1)--------|(GTR2)--------|
A|--------------|--------------|
F|--------------|--------------|
C|--7--5--3--2--|--------------|
G|--------------|--------------|
C|--------------|--7--5--3--2--|

 1:24
D|--------------------------------------------------------|
A|--------------------------------------------------------|
F|---------------------3333333333333333-333-3-55-5--------|
C|--0000000000000000---3333333333333333-333-3-55-5--------|
G|--0000000000000000---1111111111111111-111-1-33-3--------|
C|--0000000000000000--------------------------------------|
PM                                      ...   ..

 GTR 1 x2 1:30
D|---------5-5-----6-6-5-5---------|-----------------------|
A|-----6-6-----8-8---------8-8-6-6-|-----------------------|
F|-7-7-----------------------------|--333-3--55-5----------|
C|---------------------------------|--333-3--55-5----------|
G|---------------------------------|--111-1--33-3----------|
C|---------------------------------|-----------------------|
PM                                    ...    ..

 GTR 2 x2 1:30
D|---------------------------------|-----------------------|
A|---------5-5-6-6-----5-5---------|-----------------------|
F|-----------------7-7---------5-5-|--333-3--55-5----------|
C|-----7-7-----------------7-7-----|--333-3--55-5----------|
G|-5-5-----------------------------|--111-1--33-3----------|
C|---------------------------------|-----------------------|
PM                                    ...    ..

 Chorus x2 1:40
D|----------------------------------------------------------------|
A|----------------------------------------------------------------|
F|--7-7777--------5-5555--------------10-10101010-----------------|
C|--7-7777-3-3333-5-5555-55-77-8-8888-10-10101010-777777777777777-|
G|--5-5555-3-3333-3-3333-55-77-8-8888--8--8-8-8-8-777777777777777-|
C|---------3-3333--------55-77-8-8888-------------777777777777777-|

 Bridge x2 1:59
D|---------------------------------------------------------------|
A|---------------------------------------------------------------|
F|--1010101010101010---------6-666--7-777----------------5-555---|
C|--1010101010101010--7-777--6-666--7-777--8-888--3-333--5-555---|
G|---8-8-8-8-8-8-8-8--7-777--4-444--5-555--8-888--3-333--3-333---|
C|--------------------7-777----------------8-888--3-333----------|

 Bridge x2 2:18
D|---------------------------------------|
A|---------------------------------------|
F|-------------6-6666666--6/8------------|
C|---3-3333333-6-6666666--6/8------------|
G|---3-3333333-4-4444444--4/6------------|
C|---3-3333333---------------------------|
PM     .......   .......

 GTR 1 x2 2:28
D|------------------------------------------------------------------------|
A|------------------------------------------------------------------------|
F|-------------------3333333333333333-------------------------------------|
C|-0000000000000000--3333333333333333-------------------------------------|
G|-0000000000000000--1111111111111111-------------------------------------|
C|-0000000000000000-------------------------------------------------------|


 GTR 2 x2 2:28
D|------------------------------------------------------------------------|
A|------------------------------------------------------------------------|
F|-4444444444444444-555555555555555-5/7--333-3-55-5-----------------------|
C|-1111111111111111-222222222222222-2/4--333-3-55-5-----------------------|
G|-2222222222222222-333333333333333-3/5--111-1-33-3-----------------------|
C|------------------------------------------------------------------------|
 PM                                      ...   ..

 GTR 1 x2 2:37
D|---------5-5-----6-6-5-5---------|------------------|
A|-----6-6-----8-8---------8-8-6-6-|------------------|
F|-7-7-----------------------------|--333-3--55-5-----|
C|---------------------------------|--333-3--55-5-----|
G|---------------------------------|--111-1--33-3-----|
C|---------------------------------|------------------|
PM                                    ...    ..

 GTR 2 x2 2:37
D|---------------------------------|------------------|
A|---------5-5-6-6-----5-5---------|------------------|
F|-----------------7-7---------5-5-|--333-3--55-5-----|
C|-----7-7-----------------7-7-----|--333-3--55-5-----|
G|-5-5-----------------------------|--111-1--33-3-----|
C|---------------------------------|------------------|
PM                                    ...    ..

 Chorus x3 2:49
D|----------------------------------------------------------------|
A|----------------------------------------------------------------|
F|--7-7777--------5-5555--------------10-10101010-----------------|
C|--7-7777-3-3333-5-5555-55-77-8-8888-10-10101010-777777777777777-|
G|--5-5555-3-3333-3-3333-55-77-8-8888--8--8-8-8-8-777777777777777-|
C|---------3-3333--------55-77-8-8888-------------777777777777777-|

 Chorus x1 3:18
D|----------------------------------------------------------------|
A|----------------------------------------------------------------|
F|--7-7777----------5-5555------------------10-10101010-----------|
C|--7-7777--3-3333--5-5555--55--77--8-8888--10-10101010--6/7~-----|
G|--5-5555--3-3333--3-3333--55--77--8-8888---8--8-8-8-8--6/7~-----|
C|----------3-3333----------55--77--8-8888---------------6/7~-----|


And That's It..
Tap to rate this tab
 
# A B C D E F G H I J K L M N O P Q R S T U V W X Y Z