Song name
# A B C D E F G H I J K L M N O P Q R S T U V W X Y Z

Bayside - Poison In My Veins tab

----------------------------------------------------------------------------
			POISON IN MY VEINS - Bayside
----------------------------------------------------------------------------
Tabbed by: Patrice Naud
Email: drnaud81@hotmail.com

Tuning: 1 whole step down ( DGCFAD ). This one can actually be played in standard tuning 
i tabbed it this way because that's how Bayside's guitarists are generally tuned ...

intro/verse:
D|------------------------------------------------------------------------|
A|---------------------7--9-----------------------------------------------|
F|--------10--8--6--5--6--8-----------------------------------------------|
C|--8--4--10--8--6--5--4--6-----------------------------------------------|
G|--8--4--8---6--4--3-----------------------------------------------------|
D|--6--2------------------------------------------------------------------|

chorus:
D|------------------------------------------------------------------------|
A|------------------------------------------------------------------------|
F|--6-----------6---------------------------------------------------------|
C|--6--4--6--8--6--4--6---------------------------------------------------|
G|--4--4--6--8--4--4--6---------------------------------------------------|
D|-----2--4--6-----2--4---------------------------------------------------|

chorus part 2 (only for 2 last chorus):
D|------------------------------------------------------------------------|
A|------------------------------------------------------------------------|
F|--------5/6-------------------------------------------------------------|
C|--4--8--5/6--7--6--5--4-------------------------------------------------|
G|--4--8--3/4--7--6--5--4-------------------------------------------------|
D|--2--6-------5--4--3--2-------------------------------------------------|

solo:
D|------------------------------------------------------------------------|
A|-------------------------------6----------------------------------------|
F|-5---5-6-5---5-----------6-8p6---8-6-8p6--------------------------------|
C|---8-------6---8-6-6h8-6-----------------8-6---8-6----------------------|
G|---------------------------------------------8-----8-8h9-9p8-8-6-8-4-6--|
D|------------------------------------------------------------------------|

D|------------------------------------------------------------------------|
A|--------------12--------------------------------------------------------|
F|-----10-11-13----13-11-10h11p10-------11-10-11-13-11-10h11p10-----------|
C|--------------------------------13-11-----------------------------------|
G|------------------------------------------------------------------------|
D|-4-6--------------------------------------------------------------------|

D|----------11-------13-------------14----13----11------------------------|
A|----11-14----14-11----14-11-14-11----11----11----11-14------------------|
F|-13----------------------------------------------------13>--------------|
C|------------------------------------------------------------------------|
G|------------------------------------------------------------------------|
D|------------------------------------------------------------------------|

outro:
D|------------------------------------------------------------------------|
A|------------------------------------------------------------------------|
F|------------------------------6-----------------------------------------|
C|--5-6-7-8---4--6--4--6--4--6--6-----------------------------------------|
G|--5-6-7-8---4--6--4--6--4--6--4-----------------------------------------|
D|--3-4-5-6---2--4--2--4--2--4--------------------------------------------|


Listen to the song to know when to play each sections, listen to the rythm and you're 
!

| /  slide up
|   slide down
| h  hammer-on
| p  pull-off
| ~  vibrato
| +  harmonic
| x  Mute note
============================================================================
Tap to rate this tab
# A B C D E F G H I J K L M N O P Q R S T U V W X Y Z