Song name
# A B C D E F G H I J K L M N O P Q R S T U V W X Y Z

Bayside - Devotion And Desire tab

If you have any questions about the tab email me at name_shifter@hotmail.co.uk

It's probably not right but it sounds good when you play it on the guitar.

Each section of the tab comes in pairs so the line on top is the lead guitar and the 
line is the 2nd guitar(excpet for the solo) but i have labelled it just in case. I've 
it for two guitars obviously, but if you just re-arrange some things you can play it with one guitar.

It's drop D tuning

INTRO

Lead:

E--------------------------------------------------------------------------------------------------|
B---------6-5--------------------------------------------------------------------------------------|
G-------------7-6-7777777777777777-8888888888888888-77777777-77777777-88888888-66666666------------|
D-----7-5---------7777777777777777-8888888888888888-77777777-77777777-88888888-66666666------------|
A-8-7-------------5555555555555555-8888888888888888-55555555-77777777-88888888-44444444------------|
D--------------------------------------------------------------------------------------------------|

2nd:

E--------------------------------------------------------------------------------------------------|
B--------------------------------------------------------------------------------------------------|
G-----------------7777777777777777-8888888888888888-77777777-77777777-88888888-66666666------------|
D-----------------7777777777777777-8888888888888888-77777777-77777777-88888888-66666666------------|
A-----------------5555555555555555-8888888888888888-55555555-77777777-88888888-44444444------------|
D--------------------------------------------------------------------------------------------------|

VERSE

Lead:

E--------------------------------------------------------------------------------------------------|
B--------------------------------------------------------------------------------------------------|
G-7--77-7777777-8--88-8888888-7--77-7777777-8--88-6666666-7--7-7777777-8--88-8888888-7--77-7777777-|
D-7--77-7777777-8--88-8888888-7--77-7777777-8--88-6666666-7--7-7777777-8--88-8888888-7--77-7777777-|
A-5--55-5555555-8--88-8888888-5--55-7777777-8--88-4444444-5--5-5555555-8--88-8888888-5--55-7777777-|
D--------------------------------------------------------------------------------------------------|

2nd:

E--------------------------------------------------------------------------------------------------|
B--------------------------------------------------------------------------------------------------|
G-7--77-7777777-8--88-8888888-7--77-7777777-8--88-6666666-7--7-7777777-8--88-8888888-7--77-7777777-|
D-7--77-7777777-8--88-8888888-7--77-7777777-8--88-6666666-7--7-7777777-8--88-8888888-7--77-7777777-|
A-5--55-5555555-8--88-8888888-5--55-7777777-8--88-4444444-5--5-5555555-8--88-8888888-5--55-7777777-|
D--------------------------------------------------------------------------------------------------|

Lead:

E--------------------------------------------------------------------------------------------------|
B--------------------------------------------------------------------------------------------------|
G-8--88-6666666-7777777777777777-8888888888888888-77777777-77777777-66-66-666----------------------|
D-8--88-6666666-7777777777777777-8888888888888888-77777777-77777777-66-66-666----------------------|
A-8--88-4444444-5555555555555555-8888888888888888-55555555-77777777-44-44-444----------------------|
D--------------------------------------------------------------------------------------------------|

2nd:

E--------------------------------------------------------------------------------------------------|
B--------------------------------------------------------------------------------------------------|
G-8--88-6666666-7777777777777777-8888888888888888-77777777-77777777-66-66-666----------------------|
D-8--88-6666666-7777777777777777-8888888888888888-77777777-77777777-66-66-666----------------------|
A-8--88-4444444-5555555555555555-8888888888888888-55555555-77777777-44-44-444----------------------|
D--------------------------------------------------------------------------------------------------|

CHORUS

Lead:

E--------------------------------------------------------------------------------------------------|
B--------------------------------------------------------------------------------------------------|
G------------------8888888888888888-5555555555555555-7777777777777777------------------------------|
D------------------8888888888888888-5555555555555555-7777777777777777------------------------------|
A------------------8888888888888888-5555555555555555-7777777777777777------------------------------|
D--------------------------------------------------------------------------------------------------|

2nd:

E--------------------------------------------------------------------------------------------------|
B--------------------------------------------------------------------------------------------------|
G------------------8888888888888888-5555555555555555-7777777777777777------------------------------|
D------------------8888888888888888-5555555555555555-7777777777777777------------------------------|
A------------------8888888888888888-5555555555555555-7777777777777777------------------------------|
D--------------------------------------------------------------------------------------------------|

Lead:

E--------------------------------------------------------------------------------------------------|
B--------------------------------------------------------------------------------------------------|
G-7-10-9-10-7-10-9-10---10-9-10-12-10-9-10---10-9-10-12-10-9-7-5-7-9-7-10---77777777---------------|
D---------------------8--------------------8--------------------------------77777777---------------|
A---------------------------------------------------------------------------55555555---------------|
D--------------------------------------------------------------------------------------------------|

2nd:

E--------------------------------------------------------------------------------------------------|
B--------------------------------------------------------------------------------------------------|
G-7777777777777777-8888888888888888-5555555555555555-7777777777777777-----7------------------------|
D-7777777777777777-8888888888888888-5555555555555555-7777777777777777-----7------------------------|
A-5555555555555555-8888888888888888-5555555555555555-7777777777777777-----5------------------------|
D--------------------------------------------------------------------------------------------------|


VERSE

Lead:

E--------------------------------------------------------------------------------------------------|
B--------------------------------------------------------------------------------------------------|
G-7--77-7777777-8--88-8888888-7--77-7777777-8--88-6666666-7--7-7777777-8--88-8888888-7--77-7777777-|
D-7--77-7777777-8--88-8888888-7--77-7777777-8--88-6666666-7--7-7777777-8--88-8888888-7--77-7777777-|
A-5--55-5555555-8--88-8888888-5--55-7777777-8--88-4444444-5--5-5555555-8--88-8888888-5--55-7777777-|
D--------------------------------------------------------------------------------------------------|

2nd:

E--------------------------------------------------------------------------------------------------|
B--------------------------------------------------------------------------------------------------|
G-7--77-7777777-8--88-8888888-7--77-7777777-8--88-6666666-7--7-7777777-8--88-8888888-7--77-7777777-|
D-7--77-7777777-8--88-8888888-7--77-7777777-8--88-6666666-7--7-7777777-8--88-8888888-7--77-7777777-|
A-5--55-5555555-8--88-8888888-5--55-7777777-8--88-4444444-5--5-5555555-8--88-8888888-5--55-7777777-|
D--------------------------------------------------------------------------------------------------|

Lead:

E--------------------------------------------------------------------------------------------------|
B--------------------------------------------------------------------------------------------------|
G-8--88-6666666-7777777777777777-8888888888888888-77777777-77777777-66-66-666----------------------|
D-8--88-6666666-7777777777777777-8888888888888888-77777777-77777777-66-66-666----------------------|
A-8--88-4444444-5555555555555555-8888888888888888-55555555-77777777-44-44-444----------------------|
D--------------------------------------------------------------------------------------------------|

2nd:

E--------------------------------------------------------------------------------------------------|
B--------------------------------------------------------------------------------------------------|
G-8--88-6666666-7777777777777777-8888888888888888-77777777-77777777-66-66-666----------------------|
D-8--88-6666666-7777777777777777-8888888888888888-77777777-77777777-66-66-666----------------------|
A-8--88-4444444-5555555555555555-8888888888888888-55555555-77777777-44-44-444----------------------|
D--------------------------------------------------------------------------------------------------|

CHORUS

Lead:

E--------------------------------------------------------------------------------------------------|
B--------------------------------------------------------------------------------------------------|
G-7777777777777777-8888888888888888-5555555555555555-7777777777777777------------------------------|
D-7777777777777777-8888888888888888-5555555555555555-7777777777777777------------------------------|
A-5555555555555555-8888888888888888-5555555555555555-7777777777777777------------------------------|
D--------------------------------------------------------------------------------------------------|

2nd:

E--------------------------------------------------------------------------------------------------|
B--------------------------------------------------------------------------------------------------|
G-7777777777777777-8888888888888888-5555555555555555-7777777777777777------------------------------|
D-7777777777777777-8888888888888888-5555555555555555-7777777777777777------------------------------|
A-5555555555555555-8888888888888888-5555555555555555-7777777777777777------------------------------|
D--------------------------------------------------------------------------------------------------|

Lead:

E--------------------------------------------------------------------------------------------------|
B--------------------------------------------------------------------------------------------------|
G-7-10-9-10-7-10-9-10---10-9-10-12-10-9-10---10-9-10-12-10-9-7-5-7-9-7-10--------------------------|
D---------------------8--------------------8-------------------------------------------------------|
A--------------------------------------------------------------------------------------------------|
D--------------------------------------------------------------------------------------------------|

2nd:

E--------------------------------------------------------------------------------------------------|
B--------------------------------------------------------------------------------------------------|
G-7777777777777777-8888888888888888-5555555555555555-7777777777777777------------------------------|
D-7777777777777777-8888888888888888-5555555555555555-7777777777777777------------------------------|
A-5555555555555555-8888888888888888-5555555555555555-7777777777777777------------------------------|
D--------------------------------------------------------------------------------------------------|


SOLO

Lead:

E---------------------------------------------------------------------------------------5----------|
B----13-----------------------------------------------------------------------------------5--------|
G-12----12-10-9-10----9-------9-10----9-----------------------------------------------------6------|
D------------------12---10-12------12---10-12----------------------33-5BU-3---3-5-7-8-7------------|
A---------------------------------------------8-10-10BU-8-10-33-55----------5----------------------|
D--------------------------------------------------------------------------------------------------|

E-10-8-6-5-3-6-5-3-8-6-10-8-12-10-12/13-----------------------------------------------99-77-55-----|
B-------------------------------------------------10-11H13P11-10----------------------99-77-55-----|
G--------------------------------------12BU-10-------------------12-10--------6-9-6----------------|
D----------------------------------------------12----------------------10-7-8-------7--------------|
A--------------------------------------------------------------------------------------------------|
D--------------------------------------------------------------------------------------------------|

The 2nd guitar just plays the chorus underneath the solo:


E--------------------------------------------------------------------------------------------------|
B--------------------------------------------------------------------------------------------------|
G-7777777777777777-8888888888888888-5555555555555555-7777777777777777------------------------------|
D-7777777777777777-8888888888888888-5555555555555555-7777777777777777------------------------------|
A-5555555555555555-8888888888888888-5555555555555555-7777777777777777------------------------------|
D--------------------------------------------------------------------------------------------------|


BRIDGE

Lead:

E---------3H5/6---------6-5-3---------6P5P0--------------------------------------------------------|
B--------------------------------------------------------------------------------------------------|
G-7-77777-------6-66666-------8-88888-------7-77777-6H7--------------------------------------------|
D-7-77777-------6-66666-------8-88888-------7-77777------------------------------------------------|
A-5-55555-------4-44444-------8-88888-------7-77777------------------------------------------------|
D--------------------------------------------------------------------------------------------------|

2nd:

E--------------------------------------------------------------------------------------------------|
B--------------------------------------------------------------------------------------------------|
G-7-77777777----6-66666666----8-88888888----7-77777777---------------------------------------------|
D-7-77777777----6-66666666----8-88888888----7-77777777---------------------------------------------|
A-5-55555555----4-44444444----8-88888888----7-77777777---------------------------------------------|
D--------------------------------------------------------------------------------------------------|

Lead:

E--------------------------------------------------------------------------------------------------|
B--------------------------------------------------------------------------------------------------|
G-7-77777777-7--6-66666666-6--8-88888888-8--7-77777777-7--7-77777777-7--6-66666666-6--8-88888888-8-|
D-7-77777777-7--6-66666666-6--8-88888888-8--7-77777777-7--7-77777777-7--6-66666666-6--8-88888888-8-|
A-5-55555555-5--4-44444444-4--8-88888888-8--7-77777777-7--5-55555555-5--4-44444444-4--8-88888888-8-|
D--------------------------------------------------------------------------------------------------|

2nd:

E--------------------------------------------------------------------------------------------------|
B--------------------------------------------------------------------------------------------------|
G-7-77777777-7--6-66666666-6--8-88888888-8--7-77777777-7--7-77777777-7--6-66666666-6--8-88888888-8-|
D-7-77777777-7--6-66666666-6--8-88888888-8--7-77777777-7--7-77777777-7--6-66666666-6--8-88888888-8-|
A-5-55555555-5--4-44444444-4--8-88888888-8--7-77777777-7--5-55555555-5--4-44444444-4--8-88888888-8-|
D--------------------------------------------------------------------------------------------------|

Lead:

E--------------------------------------------------------------------------------------------------|
B---------------6-5--------------------------------------------------------------------------------|
G-7-777-------------7-6-7--------------------------------------------------------------------------|
D-7-777-----7-5------------------------------------------------------------------------------------|
A-7-777-8-7----------------------------------------------------------------------------------------|
D--------------------------------------------------------------------------------------------------|

2nd:

E--------------------------------------------------------------------------------------------------|
B--------------------------------------------------------------------------------------------------|
G-7-7777-------------------------------------------------------------------------------------------|
D-7-7777-------------------------------------------------------------------------------------------|
A-7-7777-------------------------------------------------------------------------------------------|
D--------------------------------------------------------------------------------------------------|

CHORUS

Lead:

E--------------------------------------------------------------------------------------------------|
B--------------------------------------------------------------------------------------------------|
G-7777777777777777-8888888888888888-5555555555555555-7777777777777777------------------------------|
D-7777777777777777-8888888888888888-5555555555555555-7777777777777777------------------------------|
A-5555555555555555-8888888888888888-5555555555555555-7777777777777777------------------------------|
D--------------------------------------------------------------------------------------------------|

2nd:

E--------------------------------------------------------------------------------------------------|
B--------------------------------------------------------------------------------------------------|
G-7777777777777777-8888888888888888-5555555555555555-7777777777777777------------------------------|
D-7777777777777777-8888888888888888-5555555555555555-7777777777777777------------------------------|
A-5555555555555555-8888888888888888-5555555555555555-7777777777777777------------------------------|
D--------------------------------------------------------------------------------------------------|

Lead:

E--------------------------------------------------------------------------------------------------|
B--------------------------------------------------------------------------------------------------|
G-7-10-9-10-7-10-9-10---10-9-10-12-10-9-10---10-9-10-12-10-9-7-5-7-9-7-10--------------------------|
D---------------------8--------------------8-------------------------------------------------------|
A--------------------------------------------------------------------------------------------------|
D--------------------------------------------------------------------------------------------------|

2nd:

E--------------------------------------------------------------------------------------------------|
B--------------------------------------------------------------------------------------------------|
G-7777777777777777-8888888888888888-5555555555555555-7777777777777777------------------------------|
D-7777777777777777-8888888888888888-5555555555555555-7777777777777777------------------------------|
A-5555555555555555-8888888888888888-5555555555555555-7777777777777777------------------------------|
D--------------------------------------------------------------------------------------------------|


The ending is just my own version it's not the actual song so you can really make it up yourself

OUTRO

Lead:

E--------------------------------------------------------------------------------------------------|
B--------------------------------------------------------------------------------------------------|
G-7-10-9-10-7-10-9-10---10-9-10-12-10-9-10---10-9-10-12-10-9-7-5-7-9-7-10--------------------------|
D---------------------8--------------------8----------------------------0--------------------------|
A--------------------------------------------------------------------------------------------------|
D--------------------------------------------------------------------------------------------------|

2nd:

E--------------------------------------------------------------------------------------------------|
B--------------------------------------------------------------------------------------------------|
G-7777777777777777-8888888888888888-5555555555555555-7777777777777777------------------------------|
D-7777777777777777-8888888888888888-5555555555555555-7777777777777777------------------------------|
A-5555555555555555-8888888888888888-5555555555555555-7777777777777777------------------------------|
D--------------------------------------------------------------------------------------------------|
Tap to rate this tab
# A B C D E F G H I J K L M N O P Q R S T U V W X Y Z