Song name
# A B C D E F G H I J K L M N O P Q R S T U V W X Y Z

Bayside - Well Be Ok tab

Bayside-We’ll be O.K.
Tabbed by Clayton Links(bassboy58@hotmail.com)

Intro                                       x4
E|--------------------------------------------|
B|--------------------------------------------|
G|--------------------------------------------|
D|----------------------------2-2-2-2-2-2-2-2-|
A|----------9-10-9-12-10-9-10-2-2-2-2-2-2-2-2-|
D|-9b10r9-5-------------------2-2-2-2-2-2-2-2-|


E|-----------------------------------|
B|-----------------------------------|
G|-----------------------------------|
D|-9b10r9-7-9b10r9-7-9-9b10r9-7------|
A|------------------------------6----|
D|-----------------------------------|


E|-----------------------------------------------|
B|-----------------------------------------------|
G|-----------------------------------------------|
D|55-555-555-555-522-222-222-222-255-555-555-559-|
A|55-555-555-555-522-222-222-222-255-555-555-559-|
D|55-555-555-555-522-222-222-222-255-555-555-559-|


E|-----------------------------------------------------|
B|-----------------------------------------------------|
G|-----------------------------------------------------|
D|-222-222-222-222-255-555-555-555-522-222-222-222-255-|
A|-222-222-222-222-255-555-555-555-522-222-222-222-255-|
D|-222-222-222-222-255-555-555-555-522-222-222-222-255-|


E|--------------------------------|
B|--------------------------------|
G|--------------------------------|
D|-555-555-559-22-222-222-222-222-|
A|-555-555-559-22-222-222-222-222-|
D|-555-555-559-22-222-222-222-222-|


E|-----------------------------------|
B|-----------------------------------|
G|-----------------------------------|
D|-9b10r9-7-9b10r9-7-9b10r9-7-5------|
A|------------------------------6/10-|
D|-----------------------------------|

Chorus
E|--------------------------------|
B|--------------------------------|
G|--------------------------------|
D|-x-2-2-x-0-0-5-5-5-5-7-7-7-5----|
A|-x-2-2-x-0-0-5-5-5--------------|
D|-x-2-2-x-0-0-5-5-5--------------|


E|-----------------------------------|
B|-----------------------------------|
G|-------x-5-5-----------------------|
D|-x-2-2-x-5-5-5-5-5-5---------------|
A|-x-2-2-x-3-3-5-5-5-5-5-7-10-9h10p9-|
D|-x-2-2-------5-5-5-5---------------|


E|--------------------------------|
B|--------------------------------|
G|--------------------------------|
D|-x-2-2-x-0-0-5-5-5-5-7-7-7-5----|
A|-x-2-2-x-0-0-5-5-5--------------|
D|-x-2-2-x-0-0-5-5-5--------------|


E|---------------------------------|
B|---------------------------------|
G|-------x-5-5---------------------|
D|-x-2-2-x-5-5-5-5-5-5-5-7-9-12-2--|
A|-x-2-2-x-3-3-5-5-5-5-5-7-9-12-2--|
D|-x-2-2-------5-5-5-5-5-7-9-12-2--|


Verse #2
E|---------------------|
B|---------------------|
G|---------------------|
D|---------------------|
A|---------------------|
D|-52-2/5-5/7-72-2/5---|


E|-----------------------------------|
B|-----------------------------------|
G|-----------------------------------|
D|-9b10r9-7-9b10r9-7-9b10r9-7-5-5----|
A|------------------------------6/10-|
D|-----------------------------------|

Chorus
E|--------------------------------|
B|--------------------------------|
G|--------------------------------|
D|-x-2-2-x-0-0-5-5-5-5-7-7-7-5----|
A|-x-2-2-x-0-0-5-5-5--------------|
D|-x-2-2-x-0-0-5-5-5--------------|


E|-----------------------------------|
B|-----------------------------------|
G|-------x-5-5-----------------------|
D|-x-2-2-x-5-5-5-5-5-5---------------|
A|-x-2-2-x-3-3-5-5-5-5-5-7-10-9h10p9-|
D|-x-2-2-------5-5-5-5---------------|


E|--------------------------------|
B|--------------------------------|
G|--------------------------------|
D|-x-2-2-x-0-0-5-5-5-5-7-7-7-5----|
A|-x-2-2-x-0-0-5-5-5--------------|
D|-x-2-2-x-0-0-5-5-5--------------|


E|----------------------------------|
B|----------------------------------|
G|-------x-5-5----------------------|
D|-x-2-2-x-5-5-5-5-5-5-5-7-9-12-2-0-|
A|-x-2-2-x-3-3-5-5-5-5-5-7-9-12-2-0-|
D|-x-2-2-------5-5-5-5-5-7-9-12-2-0-|


E|--------------------------------------------------|
B|--------------------------------------------------|
G|-44444444-88888888--99999999-77777-9-7-5-44444444-|
D|-xxxxxxxx-xxxxxxxx—-xxxxxxxx-xxxxx—x-x-x-xxxxxxxx-|
A|-22222222-66666666--77777777-55555-7-5-3-22222222-|
D|--------------------------------------------------|


E|-------------------------------------------------------|
B|-------------------------------------------------------|
G|-88888888--99999999-77777-9-7-12-11-12-7-12-11-9-12-11-|
D|-xxxxxxxx—-xxxxxxxx-xxxxx-x-x—x---x—-x-x—-x—-x-x—-x--x-|
A|-66666666—-77777777-55555-7-5-10—-9-10-5-10—-9-7-10--9-|
D|-------------------------------------------------------|


E|-------------|
B|-------------|
G|-5-9-7-------|
D|-x-x-x-------|
A|-3-7-5-------|
D|-------------|


Solo:
E|---------------------------------------------------|
B|---------------------------------------------------|
G|-7-5-4-5-4---4-------------------------------------|
D|-----------7---5-----2-5-2-5-7b9r7-5-5*-9-10-9-7-5-|
A|-----------------3-5-------------------------------|
D|---------------------------------------------------|

E|---------------------------------------------------|
B|---------------------------------------------------|
G|---------------------------------------------------|
D|-9b10r9-7-9b10r9-7-9-9b10r9-7-5-----5-7-9-10-9-----|
A|--------------------------------6-8----------------|
D|---------------------------------------------------|


E|----------------------------------------------------|
B|----------------------------------------------------|
G|----------------------------------------------------|
D|-9b10r9-7-9b10r9-7-9-9b10r9-7-5---9----9------------|
A|--------------------------------6---12—--10-10-12-7-|
D|----------------------------------------------------|
                                       . .  .

Chorus-slower
E|---------------------------------------------------------|
B|---------------------------------------------------------|
G|------------------------------------12-11-7--------------|
D|--------------------9-10-9-------------------------------|
A|-5-9-10-12-12-12-10--------5-7-9-10---------/10-12-12-10-|
D|---------------------------------------------------------|

E|----------------------|
B|----------------------|
G|-12-------------------|
D|----9-9h10p9-5-7-9-12-|
A|-------------5-7-9-12-|
D|-------------5-7-9-12-|

Chorus
E|-|B|---------------------------------------------------|
B|-|R|---------------------------------------------------|
G|-|E|-------------------------5-5-----------------------|
D|-|A|-5-5-5-5-7-7-7-5-x-2-2-x-5-5-5-5-5-5---------------|
A|-|K|-5-5-5-----------x-2-2-x-3-3-5-5-5-5-5-7-10-9h10p9-|
D|-|||-5-5-5-----------x-2-2-x-----5-5-5-5---------------|

E|----------------------------------------------------------|
B|----------------------------------------------------------|
G|-------------------------------------5-5------------------|
D|-x-2-2-x-0-0-5-5-5-5-7-7-7-5-x-2-2-x-5-5-5-5-5-5-5-7-9-12-|
A|-x-2-2-x-0-0-5-5-5-----------x-2-2-x-3-3-5-5-5-5-5-7-9-12-|
D|-x-2-2-x-0-0-5-5-5-----------x-2-2-------5-5-5-5-5-7-9-12-|


Outro
E|----------------------------------------------------------|
B|----------------------------------------------------------|
G|-9999-77-55-4444-9-7-9-11-9999-55-77-4444-7-9-12-11-12-11-|
D|-xxxx-xx-xx-xxxx-x-x-x—-x-xxxx-xx-xx-xxxx-x-x—-x—-x—-x--x-|
A|-7777-55-33-2222-7-5-7—-9-7777-33-55-2222-5-7-10—-9-10--9-|
D|----------------------------------------------------------|

E|--------------------------------------------------------|
B|--------------------------------------------------------|
G|-9999-77-55-4444-9-7-9-11-12-12-77-55-77-4444-7-9-11-12-|
D|-xxxx-xx-xx-xxxx-x-x-x—-x—-x—-x-xx-xx-xx-xxxx-x-x--x--x-|
A|-7777-55-33-2222-7-5-7--9-10-10-55-33-55-2222-5-7--9-10-|
D|--------------------------------------------------------|


				Rhythm Guitar

Intro                      x4
E|--------------------------|
B|--------------------------|
G|--------------------------|
D|-55-55-59-2-2-2-2-2-2-2-2-|
A|-55-55-59-2-2-2-2-2-2-2-2-|
D|-55-55-59-2-2-2-2-2-2-2-2-|

E|-----
B|-----
G|-----
D|-7-5-
A|-7---
D|-7---

Verse #1
E|-----------------------------------------------|
B|-----------------------------------------------|
G|-----------------------------------------------|
D|55-555-555-555-522-222-222-222-255-555-555-559-|
A|55-555-555-555-522-222-222-222-255-555-555-559-|
D|55-555-555-555-522-222-222-222-255-555-555-559-|


E|-----------------------------------------------------|
B|-----------------------------------------------------|
G|-----------------------------------------------------|
D|-222-222-222-222-255-555-555-555-522-222-222-222-255-|
A|-222-222-222-222-255-555-555-555-522-222-222-222-255-|
D|-222-222-222-222-255-555-555-555-522-222-222-222-255-|


E|------------------------------------|
B|------------------------------------|
G|------------------------------------|
D|-555-555-559-222-222-222-222-7-5----|
A|-555-555-559-222-222-222-222-7------|
D|-555-555-559-222-222-222-222-7------|


Chorus
E|--------------------------------|
B|--------------------------------|
G|---------------------4-4-4-4----|
D|-x-2-2-x-0-0-5-5-5-5-4-4-4-4----|
A|-x-2-2-x-0-0-5-5-5-5-2-2-2-2----|
D|-x-2-2-x-0-0-5-5-5-5------------|


E|----------------------------------|
B|----------------------------------|
G|-------x-5-5----------------------|
D|-x-2-2-x-5-5-5-5-5-5-5-7-9-12-0---|
A|-x-2-2-x-3-3-5-5-5-5-5-7-9-12-0---|
D|-x-2-2-------5-5-5-5-5-7-9-12-0---|

E|--------------------------------|
B|--------------------------------|
G|---------------------4-4-4-4----|
D|-x-2-2-x-0-0-5-5-5-5-4-4-4-4----|
A|-x-2-2-x-0-0-5-5-5-5-2-2-2-2----|
D|-x-2-2-x-0-0-5-5-5-5------------|


E|---------------------------------|
B|---------------------------------|
G|-------x-5-5---------------------|
D|-x-2-2-x-5-5-5-5-5-5-5-7-9-0--2--|
A|-x-2-2-x-3-3-5-5-5-5-5-7-9-0--2--|
D|-x-2-2-------5-5-5-5-5-7-9-0—-2--|

Verse #2
E|-----------------------------------------------|
B|-----------------------------------------------|
G|-----------------------------------------------|
D|55-555-555-555-522-222-222-222-255-555-555-559-|
A|55-555-555-555-522-222-222-222-255-555-555-559-|
D|55-555-555-555-522-222-222-222-255-555-555-559-|
  .. ... ... ... ... ... ... ... ... ... ... ...

E|-----------------------------------------------------|
B|-----------------------------------------------------|
G|-----------------------------------------------------|
D|-222-222-222-222-255-555-555-555-522-222-222-222-255-|
A|-222-222-222-222-255-555-555-555-522-222-222-222-255-|
D|-222-222-222-222-255-555-555-555-522-222-222-222-255-|
   ... ... ... ... ... ... ... ... ... ... ... ... ...

E|-----------------------------------|
B|-----------------------------------|
G|-----------------------------------|
D|-555-555-559-222-222-222-222-7-5---|
A|-555-555-559-222-222-222-222-7-----|
D|-555-555-559-222-222-222-222-7-----|
   ... ... ... ... ... ... ...


Chorus
E|--------------------------------|
B|--------------------------------|
G|---------------------4-4-4-4----|
D|-x-2-2-x-0-0-5-5-5-5-4-4-4-4----|
A|-x-2-2-x-0-0-5-5-5-5-2-2-2-2----|
D|-x-2-2-x-0-0-5-5-5-5------------|


E|----------------------------------|
B|----------------------------------|
G|-------x-5-5----------------------|
D|-x-2-2-x-5-5-5-5-5-5-5-7-9-0------|
A|-x-2-2-x-3-3-5-5-5-5-5-7-9-0------|
D|-x-2-2-------5-5-5-5-5-7-9-0------|


E|--------------------------------|
B|--------------------------------|
G|---------------------4-4-4-4----|
D|-x-2-2-x-0-0-5-5-5-5-4-4-4-4----|
A|-x-2-2-x-0-0-5-5-5-5-2-2-2-2----|
D|-x-2-2-x-0-0-5-5-5-5------------|


E|---------------------------------|
B|---------------------------------|
G|-------x-5-5---------------------|
D|-x-2-2-x-5-5-5-5-5-5-5-7-9-0-2-0-|
A|-x-2-2-x-3-3-5-5-5-5-5-7-9-0-2-0-|
D|-x-2-2-------5-5-5-5-5-7-9-0—2-0-|

Guitar Solo
E|----------|----------------------|x3
B|----------|----------------------|
G|------444-|----------------4444--|
D|-5555-444-|-2222-0000-5555-4444--|
A|-5555-222-|-2222-0000-5555-2222--|
D|-5555-----|-2222-0000-5555-------|

E|--------------------------------------------|
B|--------------------------------------------|
G|--------------------55555555----------55555-|
D|-2222-0000-77777777-55555555-77777777-55555-|
A|-2222-0000-77777777-33333333-77777777-33333-|
D|-2222-0000-77777777----------77777777-------|

Chorus-Clean
E|---------|
B|---------|
G|---------|
D|-5-7-9-0-|
A|-5-7-9-0-|
D|-5-7-9-0-|

Chorus
E|---------------------------------|
B|---------------------------------|
G|------4444------------------4444-|
D|-5555-4444-x-2-2-x-0-0-5555-4444-|
A|-5555-2222-x-2-2-x-0-0-5555-2222-|
D|-5555------x-2-2-x-0-0-5555------|


E|----------------------------------|
B|----------------------------------|
G|-------x-5-5----------------------|
D|-x-2-2-x-5-5-5-5-5-5-5-7-9-0------|
A|-x-2-2-x-3-3-5-5-5-5-5-7-9-0------|
D|-x-2-2-------5-5-5-5-5-7-9-0------|


E|--------------------------------|
B|--------------------------------|
G|---------------------4-4-4-4----|
D|-x-2-2-x-0-0-5-5-5-5-4-4-4-4----|
A|-x-2-2-x-0-0-5-5-5-5-2-2-2-2----|
D|-x-2-2-x-0-0-5-5-5-5------------|

E|----------------------------------|
B|----------------------------------|
G|-------x-5-5----------------------|
D|-x-2-2-x-5-5-5-5-5-5-5-7-9-0------|
A|-x-2-2-x-3-3-5-5-5-5-5-7-9-0------|
D|-x-2-2-------5-5-5-5-5-7-9-0------|

Outro
E|---------------------|
B|---------------------|
G|----------------4444-|
D|-2222-0000-5555-4444-|
A|-2222-0000-5555-2222-|
D|-2222-0000-5555------|

E|------------------------|
B|------------------------|
G|------5555--------------|
D|-2222-5555-5555-5-7-9-0-|
A|-2222-3333-5555-5-7-9-0-|
D|-2222------5555-5-7-9-0-|

E|----------------------|
B|----------------------|
G|-----------------4444-|
D|-x-222-0000-5555-4444-|
A|-x-222-0000-5555-2222-|
D|-x-222-0000-5555------|

E|------------------------|
B|------------------------|
G|------5555--------------|
D|-2222-5555-5555-5-7-9-0-|
A|-2222-3333-5555-5-7-9-0-|
D|-2222------5555-5-7-9-0-|
Tap to rate this tab
# A B C D E F G H I J K L M N O P Q R S T U V W X Y Z