Song name
# A B C D E F G H I J K L M N O P Q R S T U V W X Y Z

Bayside - Tortures Of The Damned tab

Song: Tortures Of The Damned
Artist: Bayside
Album: Bayside
Tuning: Drop D
Lead Guitar - Jack (Guitar One)
Rhythm Guitar - Anthony (Guitar Two)
Transcribed By: OneEightSevenSF

I usually tab out power tabs but I noticed the other
version of this song just had the rhythm guitar so I tabbed out the lead guitar.
Be easy on me. I haven't heard this song
in a while so this is from memory. Please rate and comment.
Here Goes Nothing..


Intro: (0:00 - 0:05)                  * - Legato Slide
Guitar One
e|-------------------|-----------------------------|
B|---------------*---|-----------------------------|
G|--4-4-6h7-4-4-4/0--|-----------------------------|
D|-------------------|--4-4-5-4-2-2-4-2--|  <------|
A|-------------------|-------------------|      ---|
D|-------------------|-------------------|      ---|
PM  . .     . .         . . . . . . . .          |
                                                  > (x2) (Intro)
Guitar Two                                       |
e|-------------------|-------------------|      ---|
B|-------------------|-------------------|      ---|
G|--4~---------------|--~----------------|  <------|
D|--4~---------------|--~--------------------------|
A|--2~---------------|--~--------------------------|
D|-------------------|-----------------------------|


Intro Continued: (0:06 - 0:11)        * - Legato Slide
Guitar One
e|-------------------|-----------------------------|
B|---------------*---|-----------------------------|
G|--4-4-6h7-4-4-4/0--|-----------------------------|
D|-------------------|--4-4-5-4-2-2-4-2--|  <------|
A|-------------------|-------------------|      ---|
D|-------------------|-------------------|      ---|
PM  . .     . .         . . . . . . . .          |
                                                  > (x2) (Intro Continued)
Guitar Two                                       |
e|-------------------|-------------------|      ---|
B|-------------------|-------------------|      ---|
G|-------------------|-------------------|  <------|
D|--4-4-4-4----------|-----------------------------|
A|--2-2-2-2-5-5-5-5--|--2-2-2-2-4-4-4-4------------|
D|----------5-5-5-5--|--2-2-2-2-4-4-4-4------------|
PM  . . . . . . . .     . . . . . . . .


Verse: (0:12 - 0:42)
Guitar One, Guitar Two
e|-------------------|-----------------------------|
B|-------------------|-----------------------------|
G|-------------------|-----------------------------|
D|--4-4-4-444-444-4--|--4-444-4----------|  <------|
A|--2-2-2-222-222-2--|--2-222-2-4-444-4--|      ---|
D|-------------------|----------4-444-4--|      ---|
PM  . . . ... ... .     . ... . . ... .          |
                                                 |
                                                 |
e|-------------------|-------------------|       |
B|-------------------|-------------------|       |
G|-------------------|-------------------|       |
D|-------------------|-------------------|       |
A|--5-5-5-5-5-5-5-5--|--555-555-777-7-7--|       |
D|--5-5-5-5-5-5-5-5--|--555-555-777-7-7--|       |
PM  . . . . . . . .     ... ... ... . .          |
                                                  > (x2) (Verse)
                                                 |
e|-------------------|-------------------|       |
B|-------------------|-------------------|       |
G|-------------------|-------------------|       |
D|-------------------|-------------------|       |
A|--2-2-2-2-2-2-2-2--|--222-222-777-7-7--|       |
D|--2-2-2-2-2-2-2-2--|--222-222-777-7-7--|       |
PM  . . . . . . . .     ... ... ... . .          |
                                                 |
                                                 |
e|-------------------|-------------------|      ---|
B|-------------------|-------------------|      ---|
G|-------------------|-------------------|  <------|
D|-------------------|-----------------------------|
A|--4-4-4-4-4-4-4-4--|--4-4-4-4-4-4-4-4------------|
D|--4-4-4-4-4-4-4-4--|--4-4-4-4-4-4-4-4------------|
PM  . . . . . . . .     . . . . . . . .


Pre-Chorus:
Guitar One, Guitar Two
e|-------------------|-------------------|
B|-------------------|-------------------|
G|-------------------|-------------------|
D|-------------------|--5-5-5-5-5-5-5-5--|  (Slowly let off PM)
A|--5-5-5-5-5-5-5-5--|--5-5-5-5-5-5-5-5--|
D|--5-5-5-5-5-5-5-5--|--5-5-5-5-5-5-5-5--|
PM  . . . . . . . .


Chorus:
Guitar One, Guitar Two
e|-------------------|-------------------|
B|-------------------|-------------------|
G|--4-4-4-4-4-4-4-4--|--6~------7~-------|
D|--4-4-4-4-4-4-4-4--|--6~------7~-------|
A|--2-2-2-2-2-2-2-2--|--4~------5~-------|
D|-------------------|-------------------|


e|-------------------|-------------------|
B|-------------------|-------------------|
G|-------------------|-------------------|
D|--5-5-5-5-5-5-5-5--|--7-7-7-7-7-7-7-7--|
A|--5-5-5-5-5-5-5-5--|--7-7-7-7-7-7-7-7--|
D|--5-5-5-5-5-5-5-5--|--7-7-7-7-7-7-7-7--|


e|-------------------|-------------------|
B|-------------------|-------------------|
G|--4-4-4-4-4-4-4-4--|--7-7-7-7-7-7-7-7--|
D|--4-4-4-4-4-4-4-4--|--7-7-7-7-7-7-7-7--|
A|--2-2-2-2-2-2-2-2--|--5-5-5-5-5-5-5-5--|
D|-------------------|-------------------|


e|-------------------|-------------------|
B|-------------------|-------------------|
G|-------------------|-------------------|
D|--5-5-5-5-5-5-5-5--|--7-7-7-7-7-7-7-7--|
A|--5-5-5-5-5-5-5-5--|--7-7-7-7-7-7-7-7--|
D|--5-5-5-5-5-5-5-5--|--7-7-7-7-7-7-7-7--|


e|-------------------|-------------------|
B|-------------------|-------------------|
G|--4-4-4-4-4-4-4-4--|-------------------|
D|--4-4-4-4-4-4-4-4--|--4-4-4-4-4-4-4-4--|
A|--2-2-2-2-2-2-2-2--|--4-4-4-4-4-4-4-4--|
D|-------------------|--4-4-4-4-4-4-4-4--|


e|-------------------|-------------------|
B|-------------------|-------------------|
G|-------------------|-------------------|
D|--5-5-5-5-5-5-5-5--|--7-7-7-7-7-7-7-7--|
A|--5-5-5-5-5-5-5-5--|--7-7-7-7-7-7-7-7--|
D|--5-5-5-5-5-5-5-5--|--7-7-7-7-7-7-7-7--|


Post-Chorus:                         * - Legato Slide
Guitar One
e|-------------------|-----------------------------|
B|---------------*---|-----------------------------|
G|--4-4-6h7-4-4-4/0--|-----------------------------|
D|-------------------|--4-4-5-4-2-2-4-2--|  <------|
A|-------------------|-------------------|      ---|
D|-------------------|-------------------|      ---|
PM  . .     . .         . . . . . . . .          |
                                                  > (x2) (Post-Chorus)
Guitar Two                                       |
e|-------------------|-------------------|      ---|
B|-------------------|-------------------|      ---|
G|--4~---------------|-------------------|  <------|
D|--4~------5~-------|--2~------4~-----------------|
A|--2~------5~-------|--2~------4~-----------------|
D|----------5~-------|--2~------4~-----------------|


Play Verse Two Times


Play Pre-Chorus


Play Chorus


Bridge:
Guitar One, Guitar Two
e|--------------------|
B|--------------------|
G|--4~--6~--7~--9~----|
D|--4~--6~--7~--9~----|
A|--2~--4~--5~--7~----|
D|--------------------|


Guitar One
e|-------------------|-----------------------------|
B|-------------------|-----------------------------|
G|--4-4~--6-7~-------|----------6-6-6-6------------|
D|--------------7v~--|--~-------6-6-6-6--|  <------|
A|-------------------|----------4-4-4-4--|      ---|
D|-------------------|-------------------|      ---|
                                                 |
Guitar Two                                       |
e|-------------------|-------------------|      ---|
B|-------------------|-------------------|      ---|
G|--4-4~--6-7~-------|----------6-6-6-6--|      ---|
D|--4-4~--6-7~--7~---|--~-------6-6-6-6------------|        >(x4) (Bridge
A|--2-2~--4-5~--7~---|--~-------4-4-4-4--|      ---|
D|--------------7~---|--~----------------|      ---|
                                                 |
                                                 |
                                                 |
Guitar One, Guitar Two                           |
e|-------------------|-------------------|      ------|
B|-------------------|-------------------|      ------|
G|-------------------|-------------------|  <---------|
D|--5-5-5-5-5-5-5-5--|--4-4-4-4-4-4-4-4---------------|
A|--5-5-5-5-5-5-5-5--|--4-4-4-4-4-4-4-4--|  <---------|There is a break
D|--5-5-5-5-5-5-5-5--|--4-4-4-4-4-4-4-4---------------|      here the fourth time.

Bridge Continued
Guitar One, Guitar Two
e|-------------------|-------------------|
B|-------------------|-------------------|
G|------4~------4~---|-------------------|
D|------4~------4~---|--4-5~----5~-------|
A|------2~------2~---|--4-5~----5~-------|
D|-------------------|--4-5~----5~-------|

e|-------------------|-------------------|
B|-------------------|-------------------|
G|-------------------|-------------------|
D|----7------7---7---|--2-4~----4~-------|
A|----7------7---7---|--2-4~----4~-------|
D|----7------7---7---|--2-4~----4~-------|


e|-------------------|-------------------|
B|-------------------|-------------------|
G|------4~------4~---|-------------------|
D|------4~------4~---|--4-5~----5~-------|
A|------2~------2~---|--4-5~----5~-------|
D|-------------------|--4-5~----5~-------|

e|-------------------|-------------------|
B|-------------------|-------------------|
G|-------------------|-------------------|
D|----7------7---7---|--2-4~----4~-------|
A|----7------7---7---|--2-4~----4~-------|
D|----7------7---7---|--2-4~----4~-------|


Play Pre-Chorus


Play Chorus


Ourto Pre-Chorus:
Guitar One, Guitar Two
e|-------------------|-------------------|
B|-------------------|-------------------|
G|-------------------|-------------------|
D|-------------------|--7-7-7-7-7-7-7-7--|  (Slowly let off PM)
A|--7-7-7-7-7-7-7-7--|--7-7-7-7-7-7-7-7--|
D|--7-7-7-7-7-7-7-7--|--7-7-7-7-7-7-7-7--|
PM  . . . . . . . .

Outro Chorus:
Guitar One, Guitar Two
e|-------------------|-------------------|
B|-------------------|-------------------|
G|--6-6-6-6-6-6-6-6--|--8~------9~-------|
D|--6-6-6-6-6-6-6-6--|--8~------9~-------|
A|--4-4-4-4-4-4-4-4--|--6~------7~-------|
D|-------------------|-------------------|


e|-------------------|-------------------|
B|-------------------|-------------------|
G|-------------------|--4-4-4-4-4-4-4-4--|
D|--7-7-7-7-7-7-7-7--|--4-4-4-4-4-4-4-4--|
A|--7-7-7-7-7-7-7-7--|--2-2-2-2-2-2-2-2--|
D|--7-7-7-7-7-7-7-7--|-------------------|


e|-------------------|-------------------|
B|-------------------|-------------------|
G|--6-6-6-6-6-6-6-6--|--9-9-9-9-9-9-9-9--|
D|--6-6-6-6-6-6-6-6--|--9-9-9-9-9-9-9-9--|
A|--4-4-4-4-4-4-4-4--|--7-7-7-7-7-7-7-7--|
D|-------------------|-------------------|


e|-------------------|-------------------|
B|-------------------|-------------------|
G|-------------------|--4-4-4-4-4-4-4-4--|
D|--7-7-7-7-7-7-7-7--|--4-4-4-4-4-4-4-4--|
A|--7-7-7-7-7-7-7-7--|--2-2-2-2-2-2-2-2--|
D|--7-7-7-7-7-7-7-7--|-------------------|

e|-------------------|-------------------|
B|-------------------|-------------------|
G|--6-6-6-6-6-6-6-6--|-------------------|
D|--6-6-6-6-6-6-6-6--|--6-6-6-6-6-6-6-6--|
A|--4-4-4-4-4-4-4-4--|--6-6-6-6-6-6-6-6--|
D|-------------------|--6-6-6-6-6-6-6-6--|


e|-------------------|-------------------|
B|-------------------|-------------------|
G|--4-4-4-4-4-4-4-4--|--4-4-4-4-4-4-4-4--|
D|--4-4-4-4-4-4-4-4--|--4-4-4-4-4-4-4-4--|
A|--2-2-2-2-2-2-2-2--|--2-2-2-2-2-2-2-2--|
D|-------------------|-------------------|


Outro:                              * - Legato Slide
Guitar One
e|-------------------|-----------------------------|
B|---------------*---|-----------------------------|
G|--6-6-8h9-6-6-6/2--|-----------------------------|
D|-------------------|--6-6-7-6-4-4-6-4--|  <------|
A|-------------------|-------------------|      ---|
D|-------------------|-------------------|      ---|
PM  . .     . .         . . . . . . . .          |
                                                  > (x3) (Outro)
Guitar Two                                       |
e|-------------------|-------------------|      ---|
B|-------------------|-------------------|      ---|
G|-------------------|-------------------|  <------|
D|--6-6-6-6----------|-----------------------------|
A|--4-4-4-4-7-7-7-7--|--4-4-4-4-6-6-6-6------------|
D|----------7-7-7-7--|--4-4-4-4-6-6-6-6------------|
PM  . . . . . . . .     . . . . . . . .


End With:
Guitar One
e|-------------------|-------------------|
B|-------------------|-------------------|
G|--6---------6------|--6\---------------|
D|--6----7----6------|--6\---------------|
A|--4----7----4------|--4\---------------|
D|-------7-----------|-------------------|

Guitar Two
e|-------------------|-------------------|
B|-------------------|-------------------|
G|--6---------6------|--6\---------------|
D|--6---------6------|--6\---------------|
A|--4---------4------|--4\---------------|
D|-------------------|-------------------|
Tap to rate this tab
 
# A B C D E F G H I J K L M N O P Q R S T U V W X Y Z