Song name
# A B C D E F G H I J K L M N O P Q R S T U V W X Y Z

Bayside - Talking Of Michelangelo tab

I used the program PowerTab yet I dont know how do add it to this website. Please
send me a message telling me how to upload my PowerTab files. Meanwhile, I'll
submit the ASCII export as a temporary tab.

                             TALKING OF MICHELANGELO
                             As recorded by Bayside
                  (From the 2004 Album SIRENS AND CONDOLENCES)


   Intro
    Q=166
   4/4
    Gtr I
    PM-------------------------------------
    E E E E E E E E   E E E E E  E  E  E
||------------------|---------------------|
||o-----------------|---------------------|
||----0-----0-----0-|---0-----4-----7-----|
||------0-----0-----|-----4------0-----0--|
||o-3-----3-----3---|-5-----5---(5)---(5)-|
||------------------|---------------------|
|
|   Gtr II
|   PM-------------------------------------
|   E E E E E E E E   E E E E E  E  E  E
||------------------|---------------------|
||o-----------------|---------------------|
||------------------|---------------------|
||--5-5-5-5-5-5-5-5-|-7-7-7-7-7--7--7--7--|
||o-3-3-3-3-3-3-3-3-|-5-5-5-5-5--5--5--5--|
||------------------|---------------------|


 ---------------------------------|
  E E E E E E E E   E E E E E E E E   4x
|-----------------|-------------------||
|-----------------|------------------o||
|---------9-------|-----9-----9-------||
|-----9-----7-----|-9-----7-----7-----||
|-7-7---7-----7-7-|---7-----7-----7--o||
|-----------------|-------------------||
|
|---------------------------------|
| E E E E E E E E   E E E E E E E E   4x
|-----------------|-------------------||
|-----------------|------------------o||
|-----------------|-------------------||
|-9-9-9-9-9-9-9-9-|-9-9-9-9-9-9-9-9---||
|-7-7-7-7-7-7-7-7-|-7-7-7-7-7-7-7-7--o||
|-----------------|-------------------||


   Verse
     PM-------------------------------------------------
     E  E  E  E  E  E  E  E    E   E  E  E  E  E  E  E
||--------------------------|--------------------------|
||o-------------------------|--------------------------|
||--12-12-12-12-14-14-14-14-|-16--16-16-16-14-14-14-14-|
||--12-12-12-12-12-12-12-12-|-12--12-12-12-12-12-12-12-|
||o-------------------------|--------------------------|
||--------------------------|--------------------------|
|
|    W                        +W
||--------------------------|--------------------------|
||o-------------------------|--------------------------|
||--------------------------|--------------------------|
||---5----------------------|-(5)----------------------|
||o--5----------------------|-(5)----------------------|
||---3----------------------|-(3)----------------------|


 ---------------------------------|
  E E E E E E E E   E E E E E E E E
|-----------------|-----------------|
|-----------------|-----------------|
|-9-9-9-9-7-7-7-7-|-5-5-5-5-5-5-5-5-|
|-9-9-9-9-7-7-7-7-|-5-5-5-5-5-5-5-5-|
|-----------------|-----------------|
|-----------------|-----------------|
|
| H       H         W
|-----------------|-----------------|
|-----------------|-----------------|
|-9-------7-------|-5---------------|
|-9-------7-------|-5---------------|
|-7-------5-------|-3---------------|
|-----------------|-----------------|


  Gtrs I, II
  PM---------------------------------------------------
  E E E E E E E E   E E E E E E E E   E E E E E E E E
|-----------------|-----------------|-----------------|
|-----------------|-----------------|-----------------|
|-----------------|-----------------|-----------------|
|-4-4-4-4-4-4-4-4-|-----------------|-2-2-2-2-2-2-2-2-|
|-2-2-2-2-2-2-2-2-|-2-2-2-2-2-2-2-2-|-0-0-0-0-0-0-0-0-|
|-----------------|-0-0-0-0-0-0-0-0-|-----------------|


 1.                   2.
                      <
 ---------------|
  E E E E E E E E     E E E E E E E E
|------------------||-------------------|
|-----------------o||-------------------|
|------------------||-7-7-7-7-7-7-7-7---|
|-7-7-7-7-7-7-7-7--||-7-7-7-7-7-7-7-7---|
|-5-5-5-5-5-5-5-5-o||-5-5-5-5-5-5-5-5---|
|------------------||-------------------|


   Chorus
    Q  Q  E Q  E   Q  E Q  E Q    Q  Q  E Q  E   Q  E Q  E Q
||-----3----3----|-3----3----3--|----0----0----|-2--2-2--2-2--|
||o----3----3----|-3----3----3--|----1----1----|-3--3-3--3-3--|
||-----0----0----|-0----0----0--|-0--0--0-0--0-|-2--2-2--2-2--|
||--0--0--0-0--0-|-0--0-0--0-0--|-2--2--2-2--2-|-0--0-0--0-0--|
||o-2--2--2-2--2-|-2--2-2--2-2--|-3--3--3-3--3-|--------------|
||--3--3--3-3--3-|-3--3-3--3-3--|--------------|--------------|


                                                 1.
  Q  q  E Q  E   +E  q.   Q  Q    Q  q  E Q  E   +E  Q  E E E Q
|-0--0----0--0-|-(0)-0----0--0--|-0--0----0--2-|-(2)-2--3-2--------||
|-0--0----0--0-|-(0)-0----0--3--|-1--1----1--3-|-(3)-3------3-----o||
|-0--0----0--0-|-(0)-0----0--2--|-0--0----0--2-|-(2)-2--------2----||
|-2--2----2--2-|-(2)-2----2--0--|-2--2----2--0-|-(0)-0-------------||
|-2--2----2--2-|-(2)-2----2--2--|-3--3----3----|------------------o||
|-0--0----0--0-|-(0)-0----0--0--|--------------|-------------------||


  2.
  Q  E Q  E Q    W          +W
|-2--2-2--2-2--|-3--------|-(3)----|
|-3--3-3--3-3--|-3--------|-(3)----|
|-2--2-2--2-2--|-0--------|-(0)----|
|-0--0-0--0-0--|-0--------|-(0)----|
|--------------|-2--------|-(2)----|
|--------------|-3--------|-(3)----|


   Interlude
    Gtr I
    PM-------------------------------------------------------
    E E E E E E E E   E E E E E  E  E  E    E E E E E E E E
||------------------|---------------------|-----------------|
||o-----------------|---------------------|-----------------|
||----0-----0-----0-|---0-----4-----7-----|---------9-------|
||------0-----0-----|-----4------0-----0--|-----9-----7-----|
||o-3-----3-----3---|-5-----5---(5)---(5)-|-7-7---7-----7-7-|
||------------------|---------------------|-----------------|
|
|   Gtr II
|   PM-------------------------------------------------------
|   E E E E E E E E   E E E E E  E  E  E    E E E E E E E E
||------------------|---------------------|-----------------|
||o-----------------|---------------------|-----------------|
||------------------|---------------------|-----------------|
||--5-5-5-5-5-5-5-5-|-7-7-7-7-7--7--7--7--|-9-9-9-9-9-9-9-9-|
||o-3-3-3-3-3-3-3-3-|-5-5-5-5-5--5--5--5--|-7-7-7-7-7-7-7-7-|
||------------------|---------------------|-----------------|


 ---------------|
  E E E E E E E E     E E E E E E Q    +W
|------------------||-----0-----2-3--|-(3)----|
|-----------------o||---1---3-3---0--|-(0)----|
|-----9-----9------||-0-----2-----0--|-(0)----|
|-9-----7-----7----||-2-----0-----0--|-(0)----|
|---7-----7-----7-o||-3-----------2--|-(2)----|
|------------------||-------------3--|-(3)----|
|
|---------------|
| E E E E E E E E     E E E E E E Q    +W
|------------------||-----0-----2-3--|-(3)----|
|-----------------o||---1---3-3---0--|-(0)----|
|------------------||-0-----2-----0--|-(0)----|
|-9-9-9-9-9-9-9-9--||-2-----0-----0--|-(0)----|
|-7-7-7-7-7-7-7-7-o||-3-----------2--|-(2)----|
|------------------||-------------3--|-(3)----|


   2nd Verse
     PM-------------------------------------------------
     E  E  E  E  E  E  E  E    E   E  E  E  E  E  E  E
||--------------------------|--------------------------|
||o-------------------------|--------------------------|
||--12-12-12-12-14-14-14-14-|-16--16-16-16-14-14-14-14-|
||--12-12-12-12-12-12-12-12-|-12--12-12-12-12-12-12-12-|
||o-------------------------|--------------------------|
||--------------------------|--------------------------|
|
|    W                        +W
||--------------------------|--------------------------|
||o-------------------------|--------------------------|
||--------------------------|--------------------------|
||---5----------------------|-(5)----------------------|
||o--5----------------------|-(5)----------------------|
||---3----------------------|-(3)----------------------|


 ---------------------------------|
  E E E E E E E E   E E E E E E E E
|-----------------|-----------------|
|-----------------|-----------------|
|-9-9-9-9-7-7-7-7-|-5-5-5-5-5-5-5-5-|
|-9-9-9-9-7-7-7-7-|-5-5-5-5-5-5-5-5-|
|-----------------|-----------------|
|-----------------|-----------------|
|
| H       H         W
|-----------------|-----------------|
|-----------------|-----------------|
|-9-------7-------|-5---------------|
|-9-------7-------|-5---------------|
|-7-------5-------|-3---------------|
|-----------------|-----------------|


  Gtrs I, II
  PM---------------------------------------------------
  E E E E E E E E   E E E E E E E E   E E E E E E E E
|-----------------|-----------------|-----------------|
|-----------------|-----------------|-----------------|
|-----------------|-----------------|-----------------|
|-4-4-4-4-4-4-4-4-|-----------------|-2-2-2-2-2-2-2-2-|
|-2-2-2-2-2-2-2-2-|-2-2-2-2-2-2-2-2-|-0-0-0-0-0-0-0-0-|
|-----------------|-0-0-0-0-0-0-0-0-|-----------------|


 1.                   2.
                      <
 ---------------|
  E E E E E E E E     E E E E E E E E
|------------------||-------------------|
|-----------------o||-------------------|
|------------------||-7-7-7-7-7-7-7-7---|
|-7-7-7-7-7-7-7-7--||-7-7-7-7-7-7-7-7---|
|-5-5-5-5-5-5-5-5-o||-5-5-5-5-5-5-5-5---|
|------------------||-------------------|


   2nd Chorus
    Q  Q  E Q  E   Q  E Q  E Q    Q  Q  E Q  E   Q  E Q  E Q
||-----3----3----|-3----3----3--|----0----0----|-2--2-2--2-2--|
||o----3----3----|-3----3----3--|----1----1----|-3--3-3--3-3--|
||-----0----0----|-0----0----0--|-0--0--0-0--0-|-2--2-2--2-2--|
||--0--0--0-0--0-|-0--0-0--0-0--|-2--2--2-2--2-|-0--0-0--0-0--|
||o-2--2--2-2--2-|-2--2-2--2-2--|-3--3--3-3--3-|--------------|
||--3--3--3-3--3-|-3--3-3--3-3--|--------------|--------------|


                                             1.
  Q  q  E Q  E   +E  q.   Q  Q    Q  q  E Q  E   +E  Q  E E E Q
|-0--0----0--0-|-(0)-0----0--0--|-0--0----0--2-|-(2)-2--3-2--------||
|-0--0----0--0-|-(0)-0----0--3--|-1--1----1--3-|-(3)-3------3-----o||
|-0--0----0--0-|-(0)-0----0--2--|-0--0----0--2-|-(2)-2--------2----||
|-2--2----2--2-|-(2)-2----2--0--|-2--2----2--0-|-(0)-0-------------||
|-2--2----2--2-|-(2)-2----2--2--|-3--3----3----|------------------o||
|-0--0----0--0-|-(0)-0----0--0--|--------------|-------------------||


                        Bridge
  2.
  Gtrs I, II             Gtr I
  E   +Q   E Q  E Q       Q  Q  H
|-2-|-(2)--2-2--2-2--||--------------|
|-3-|-(3)--3-3--3-3--||o--------1----|
|-2-|-(2)--2-2--2-2--||---------0----|
|-0-|-(0)--0-0--0-0--||------2--2----|
|---|----------------||o--3-----3----|
|---|----------------||--------------|
|
|                        Gtr II
|                         W
|---|----------------||---0----------|
|---|----------------||o--1----------|
|---|----------------||---0----------|
|---|----------------||---2----------|
|---|----------------||o--3----------|
|---|----------------||--------------|


  Q  Q  H      Q  Q  H      E E Q  E E Q
|------------|------------|-----0------2-----||
|------------|-------4----|-----0------3----o||
|-------0----|-------4----|---0-0----2-2-----||
|-2-----2----|----4--4----|-2---2--0---0-----||
|----2--2----|-2-----2----|-----------------o||
|-------0----|------------|------------------||
|
| W            W            H      H
|-0----------|-2----------|-0------2---------||
|-0----------|-4----------|-0------3--------o||
|-0----------|-4----------|-0------2---------||
|-2----------|-4----------|-2------0---------||
|-2----------|-2----------|-----------------o||
|-0----------|------------|------------------||


    Gtr II
    W          W          W          W
||--0--------|-2--------|-3--------|-2--------|
||o-1--------|-3--------|-3--------|-4--------|
||--0--------|-2--------|-0--------|-4--------|
||--2--------|-0--------|-0--------|-4--------|
||o-3--------|----------|-2--------|-2--------|
||-----------|----------|-3--------|----------|


             1.
  W          W          W          +W
|-0--------|-2--------|-3--------|-(3)-----||
|-1--------|-3--------|-3--------|-(3)----o||
|-0--------|-2--------|-0--------|-(0)-----||
|-2--------|-0--------|-0--------|-(0)-----||
|-3--------|----------|-2--------|-(2)----o||
|----------|----------|-3--------|-(3)-----||


  2.
  Gtrs I, II
  Q  q.   Q  E   +E  q  Q  E Q
|-2--2----2--2-|-(2)-2--2--2-2--|
|-3--3----3--3-|-(3)-3--3--3-3--|
|-2--2----2--2-|-(2)-2--2--2-2--|
|-0--0----0--0-|-(0)-0--0--0-0--|
|--------------|----------------|
|--------------|----------------|


 Final Chorus
  Q  q.   Q  E   +E  q  Q  E Q    Q  Q  E Q  E   Q  E Q  E Q
|-3--3----3--3-|-(3)-3--3--3-3--|----0----0----|-2--2-2--2-2---|
|-3--3----3--0-|-(0)-0--0--0-0--|----1----1----|-3--3-3--3-3---|
|-2--2----2--0-|-(0)-0--0--0-0--|-0--0--0-0--0-|-2--2-2--2-2---|
|-0--0----0--0-|-(0)-0--0--0-0--|-2--2--2-2--2-|-0--0-0--0-0---|
|-0--0----0--2-|-(2)-2--2--2-2--|-3--3--3-3--3-|---------------|
|-3--3----3--3-|-(3)-3--3--3-3--|--------------|---------------|


  Q  q  E Q  E   +E  q.   Q  Q    Q  q  E Q  E   +E  Q  E E E Q
|-0--0----0--0-|-(0)-0----0--0--|-0--0----0--2-|-(2)-2--3-2-------|
|-0--0----0--0-|-(0)-0----0--3--|-1--1----1--3-|-(3)-3------3-----|
|-0--0----0--0-|-(0)-0----0--2--|-0--0----0--2-|-(2)-2--------2---|
|-2--2----2--2-|-(2)-2----2--0--|-2--2----2--0-|-(0)-0------------|
|-2--2----2--2-|-(2)-2----2--2--|-3--3----3----|------------------|
|-0--0----0--0-|-(0)-0----0--0--|--------------|------------------|


  Q  q.   Q  E   +E  q  Q  E Q    Q  Q  E Q  E   Q  E Q  E Q
|-3--3----3--3-|-(3)-3--3--3-3--|----0----0----|-2--2-2--2-2---|
|-3--3----3--0-|-(0)-0--0--0-0--|----1----1----|-3--3-3--3-3---|
|-2--2----2--0-|-(0)-0--0--0-0--|-0--0--0-0--0-|-2--2-2--2-2---|
|-0--0----0--0-|-(0)-0--0--0-0--|-2--2--2-2--2-|-0--0-0--0-0---|
|-0--0----0--2-|-(2)-2--2--2-2--|-3--3--3-3--3-|---------------|
|-3--3----3--3-|-(3)-3--3--3-3--|--------------|---------------|


                                                    Gtr II
  Q  q  E Q  E   +E  q.   Q  Q    E E E E E E E E    E  E  E  E  E  E  E E
|-0--0----0--0-|-(0)-0----0--0--|-2-2-2-2-2-2-2-2-|--2--2--2--2--2--2--2-2--|
|-0--0----0--0-|-(0)-0----0--3--|-3-3-3-3-3-3-3-3-|--3--3--3--3--3--3--3-3--|
|-0--0----0--0-|-(0)-0----0--2--|-2-2-2-2-2-2-2-2-|--2--2--2--2--2--2--2-2--|
|-2--2----2--2-|-(2)-2----2--0--|-0-0-0-0-0-0-0-0-|--0--0--0--0--0--0--0-0--|
|-2--2----2--2-|-(2)-2----2--2--|-----------------|-------------------------|
|-0--0----0--0-|-(0)-0----0--0--|-----------------|-------------------------|
|
|                                                   Gtr I
|                                                    E  E  E  E  E  E  Q
|--------------|----------------|-----------------|-------------------------|
|--------------|----------------|-----------------|-------------------------|
|--------------|----------------|-----------------|-14-14-14-14-14-16-14----|
|--------------|----------------|-----------------|-------------------------|
|--------------|----------------|-----------------|-12-12-12-12-12-14-12----|
|--------------|----------------|-----------------|-------------------------|


    Gtr I
     E  E  E  E  E  E  E  E    E  E  E  E  E  E  E  E
||--------------------------|-------------------------|
||o-------------------------|-------------------------|
||--12-12-12-12-12-12-12-12-|-12-12-12-12-12-12-12-12-|
||--------------------------|-------------------------|
||o-10-10-10-10-10-10-10-10-|-10-10-10-10-10-10-10-10-|
||--------------------------|-------------------------|
|
|   Gtr II
|    Q     Q     E  Q     E    Q     E  Q     E  Q
||---------3--------3-------|--3--------3--------3----|
||o--------3--------3-------|--3--------3--------3----|
||---------0--------0-------|--0--------0--------0----|
||---0-----0-----0--0-----0-|--0-----0--0-----0--0----|
||o--2-----2-----2--2-----2-|--2-----2--2-----2--2----|
||---3-----3-----3--3-----3-|--3-----3--3-----3--3----|


   E  E  E  E  E  E  E  E    +Q.    Q.    Q
|-------------------------|------------------|
|-------------------------|------------------|
|-12-12-12-12-12-12-12-11-|-(11)----9-----7--|
|-------------------------|------------------|
|-10-10-10-10-10-10-10--9-|--(9)----7-----5--|
|-------------------------|------------------|
|
|  Q     Q     E  Q     E     Q   E Q   E Q
|--------0--------0-------|---2---2-2---2-2--|
|--------1--------1-------|---3---3-3---3-3--|
|--0-----0-----0--0-----0-|---2---2-2---2-2--|
|--2-----2-----2--2-----2-|---0---0-0---0-0--|
|--3-----3-----3--3-----3-|------------------|
|-------------------------|------------------|


                                   1.
  Q  Q  Q   E E   +E  Q.   Q  Q    E E E E E E Q     E E Q   Q   Q
|---------------|----------------|-----------------|-------------------||
|---------------|----------------|-----------------|------------------o||
|-9--9--9---7-9-|-(9)-7----5--4--|-5-5-5-5-5-5-9---|-7-7-5---7---7-----||
|---------------|----------------|-----------------|-------------------||
|-7--7--7---5-7-|-(7)-5----3--2--|-3-3-3-3-3-3-7---|-5-5-3---5---5----o||
|---------------|----------------|-----------------|-------------------||
|
| Q  q  E Q   E   +E  q.   Q  Q    E E E E E E E E   E E E E E E E E
|-0--0----0---0-|-(0)-0----0--0--|-0-0-0-0-0-0-0-0-|-2-2-2-2-2-2-2-2---||
|-0--0----0---0-|-(0)-0----0--3--|-1-1-1-1-1-1-1-1-|-3-3-3-3-3-3-3-3--o||
|-0--0----0---0-|-(0)-0----0--2--|-0-0-0-0-0-0-0-0-|-2-2-2-2-2-2-2-2---||
|-2--2----2---2-|-(2)-2----2--0--|-2-2-2-2-2-2-2-2-|-0-0-0-0-0-0-0-0---||
|-2--2----2---2-|-(2)-2----2--2--|-3-3-3-3-3-3-3-3-|------------------o||
|-0--0----0---0-|-(0)-0----0--0--|-----------------|-------------------||


  2.
   E  E E  S  S  E  E Q     E  E E  S  S  E  E Q
|------------------------|------------------------|
|------------------------|------------------------|
|-11-11---11-11-11-11----|-11-11---11-11-11-11----|
|------------------------|------------------------|
|--9--9----9--9--9--9----|--9--9----9--9--9--9----|
|------------------------|------------------------|
|
|  E  E E  S  S  E  E Q     E  E E  S  S  E  E Q
|--2--2----2--2--2--2----|--2--2----2--2--2--2----|
|--3--3----3--3--3--3----|--3--3----3--3--3--3----|
|--2--2----2--2--2--2----|--2--2----2--2--2--2----|
|--0--0----0--0--0--0----|--0--0----0--0--0--0----|
|------------------------|------------------------|
|------------------------|------------------------|


   E  E E  S  S  E  E Q     Q   Q   Q   Q
|------------------------|-----------------|
|------------------------|-----------------|
|-11-11---11-11-11-11----|-11--11--11--11--|
|------------------------|-----------------|
|--9--9----9--9--9--9----|--9---9---9---9--|
|------------------------|-----------------|
|
|  E  E E  S  S  E  E Q     Q   Q   Q   Q
|--2--2----2--2--2--2----|--2---2---2---2--|
|--3--3----3--3--3--3----|--3---3---3---3--|
|--2--2----2--2--2--2----|--2---2---2---2--|
|--0--0----0--0--0--0----|--0---0---0---0--|
|------------------------|-----------------|
|------------------------|-----------------|


   W           +W
|-----------|---------*|
|-----------|---------*|
|-12--------|-(12)----*|
|-----------|---------*|
|-10--------|-(10)----*|
|-----------|---------*|
|
|  W           +W
|--3--------|--(3)----*|
|--3--------|--(3)----*|
|--0--------|--(0)----*|
|--0--------|--(0)----*|
|--2--------|--(2)----*|
|--3--------|--(3)----*|

Tap to rate this tab
# A B C D E F G H I J K L M N O P Q R S T U V W X Y Z